  0
SECTION
  2
HEADER
  9
$ACADVER
  1
AC1009
  9
$INSBASE
 10
0
 20
0
 30
0
  9
$EXTMIN
 10
0
 20
0
  9
$EXTMAX
 10
3360
 20
2376
  9
$LIMMIN
 10
0
 20
0
  9
$LIMMAX
 10
3360
 20
2376
  9
$LTSCALE
 40
8
  0
ENDSEC
  0
SECTION
  2
TABLES
  0
TABLE
  2
LTYPE
 70
     9
  0
LTYPE
  2
CONTINUOUS
 70
    64
  3
実線
 72
    65
 73
     0
 40
0.0
  0
LTYPE
  2
DASHED1
 70
    64
  3
--  --  --  --  --  --  --  --  
 72
    65
 73
     2
 40
2.5
 49
1.25
 49
-1.25
  0
LTYPE
  2
DASHED2
 70
    64
  3
----    ----    ----    ----    
 72
    65
 73
     2
 40
5.0
 49
2.5
 49
-2.5
  0
LTYPE
  2
DASHED3
 70
    64
  3
------  ------  ------  ------  
 72
    65
 73
     2
 40
5.0
 49
3.75
 49
-1.25
  0
LTYPE
  2
CENTER1
 70
    64
  3
----- - ----- - ----- - ----- - 
 72
    65
 73
     4
 40
10.0
 49
6.25
 49
-1.25
 49
1.25
 49
-1.25
  0
LTYPE
  2
CENTER2
 70
    64
  3
----------  --  ----------  --  
 72
    65
 73
     4
 40
20.0
 49
12.5
 49
-2.5
 49
2.5
 49
-2.5
  0
LTYPE
  2
PHANTOM1
 70
    64
  3
--- - - --- - - --- - - --- - - 
 72
    65
 73
     6
 40
10.0
 49
3.25
 49
-1.25
 49
1.25
 49
-1.25
 49
1.25
 49
-1.25
  0
LTYPE
  2
PHANTOM2
 70
    64
  3
--------  -  -  --------  -  -  
 72
    65
 73
     6
 40
20.0
 49
10.0
 49
-2.5
 49
1.25
 49
-2.5
 49
1.25
 49
-2.5
  0
LTYPE
  2
DOT
 70
    64
  3
-   -   -   -   -   -   -   -   
 72
    65
 73
     2
 40
2.5
 49
0.625
 49
-1.875
  0
LTYPE
  2
DUMMY
 70
    64
  3
ダミー
 72
    65
 73
     0
 40
0.0
  0
LTYPE
  2
RAND1
 70
    64
  3
ランダム線1
 72
    65
 73
     4
 40
10.0
 49
1.0
 49
-2.0
 49
3.0
 49
-4.0
  0
LTYPE
  2
RAND2
 70
    64
  3
ランダム線2
 72
    65
 73
     4
 40
14.0
 49
2.0
 49
-3.0
 49
4.0
 49
-5.0
  0
LTYPE
  2
RAND3
 70
    64
  3
ランダム線3
 72
    65
 73
     4
 40
18.0
 49
3.0
 49
-4.0
 49
5.0
 49
-6.0
  0
LTYPE
  2
RAND4
 70
    64
  3
ランダム線4
 72
    65
 73
     4
 40
22.0
 49
4.0
 49
-5.0
 49
6.0
 49
-7.0
  0
LTYPE
  2
RAND5
 70
    64
  3
ランダム線5
 72
    65
 73
     4
 40
26.0
 49
5.0
 49
-6.0
 49
7.0
 49
-8.0
  0
LTYPE
  2
LONG1
 70
    64
  3
----------  --  ----------  --  
 72
    65
 73
     4
 40
40.0
 49
32.5
 49
-2.5
 49
2.5
 49
-2.5
  0
LTYPE
  2
LONG2
 70
    64
  3
--------  -  -  --------  -  -  
 72
    65
 73
     6
 40
40.0
 49
30.0
 49
-2.5
 49
1.25
 49
-2.5
 49
1.25
 49
-2.5
  0
LTYPE
  2
LONG3
 70
    64
  3
+++++++++++++++..+++++++++++++++
 72
    65
 73
     2
 40
40.0
 49
37.5
 49
-2.5
  0
LTYPE
  2
LONG4
 70
    64
  3
+++++++++++++++..+++++++++++++++
 72
    65
 73
     2
 40
80.0
 49
75.0
 49
-5.0
  0
LTYPE
  2
LONG5
 70
    64
  3
----------  --  ----------  --  
 72
    65
 73
     4
 40
60.0
 49
37.5
 49
-7.5
 49
7.5
 49
-7.5
  0
LTYPE
  2
dashed
 70
   64
  3
-------   -------------   ------
 72
   65
 73
    2
 40
7.5
 49
6
 49
-1.5
  0
LTYPE
  2
dashed_spaced
 70
   64
  3
----        --------        ----
 72
   65
 73
    2
 40
12
 49
6
 49
-6
  0
LTYPE
  2
long_dashed_dotted
 70
   64
  3
------------- --- --------------
 72
   65
 73
    4
 40
15.25
 49
12
 49
-1.5
 49
0.25
 49
-1.5
  0
LTYPE
  2
long_dashed_double-dotted
 70
   64
  3
----------- --- --- ------------
 72
   65
 73
    6
 40
17
 49
12
 49
-1.5
 49
0.25
 49
-1.5
 49
0.25
 49
-1.5
  0
LTYPE
  2
long_dashed_triplicate-dotted
 70
   64
  3
--------- --- --- --- ----------
 72
   65
 73
    8
 40
18.75
 49
12
 49
-1.5
 49
0.25
 49
-1.5
 49
0.25
 49
-1.5
 49
0.25
 49
-1.5
  0
LTYPE
  2
dotted
 70
   64
  3
   -       -       -       -    
 72
   65
 73
    2
 40
1.75
 49
0.25
 49
-1.5
  0
LTYPE
  2
chain
 70
   64
  3
-------------- -- --------------
 72
   65
 73
    4
 40
18.5
 49
12
 49
-1.5
 49
3.5
 49
-1.5
  0
LTYPE
  2
chain_double_dash
 70
   64
  3
------------ -- -- -------------
 72
   65
 73
    6
 40
23.5
 49
12
 49
-1.5
 49
3.5
 49
-1.5
 49
3.5
 49
-1.5
  0
LTYPE
  2
dashed_dotted
 70
   64
  3
-----------     -     ----------
 72
   65
 73
    4
 40
9.25
 49
6
 49
-1.5
 49
0.25
 49
-1.5
  0
LTYPE
  2
double-dashed_dotted
 70
   64
  3
------   -----------   -   -----
 72
   65
 73
    6
 40
16.75
 49
6
 49
-1.5
 49
6
 49
-1.5
 49
0.25
 49
-1.5
  0
LTYPE
  2
dashed_double-dotted
 70
   64
  3
---------    -    -    ---------
 72
   65
 73
    6
 40
11
 49
6
 49
-1.5
 49
0.25
 49
-1.5
 49
0.25
 49
-1.5
  0
LTYPE
  2
double-dashed_double-dotted
 70
   64
  3
-----   ---------   -   -   ----
 72
   65
 73
    8
 40
18.5
 49
6
 49
-1.5
 49
6
 49
-1.5
 49
0.25
 49
-1.5
 49
0.25
 49
-1.5
  0
LTYPE
  2
dashed_triplicate-dotted
 70
   64
  3
-------    -    -    -    ------
 72
   65
 73
    8
 40
12.75
 49
6
 49
-1.5
 49
0.25
 49
-1.5
 49
0.25
 49
-1.5
 49
0.25
 49
-1.5
  0
LTYPE
  2
double-dashed_triplicate-dotted
 70
   64
  3
-----  ---------  -  -  -  -----
 72
   65
 73
   10
 40
20.25
 49
6
 49
-1.5
 49
6
 49
-1.5
 49
0.25
 49
-1.5
 49
0.25
 49
-1.5
 49
0.25
 49
-1.5
  0
LTYPE
  2
undefined
 70
   64
  3
--------------------------------
 72
   65
 73
    0
 40
0
  0
LTYPE
  2
_
 70
   64
  3
                                
 72
   65
 73
    0
 40
0
  0
LTYPE
  2
__18
 70
   64
  3
                                
 72
   65
 73
    0
 40
0
  0
LTYPE
  2
__19
 70
   64
  3
                                
 72
   65
 73
    0
 40
0
  0
LTYPE
  2
__20
 70
   64
  3
                                
 72
   65
 73
    0
 40
0
  0
LTYPE
  2
__21
 70
   64
  3
                                
 72
   65
 73
    0
 40
0
  0
LTYPE
  2
__22
 70
   64
  3
                                
 72
   65
 73
    0
 40
0
  0
LTYPE
  2
__23
 70
   64
  3
                                
 72
   65
 73
    0
 40
0
  0
LTYPE
  2
__24
 70
   64
  3
                                
 72
   65
 73
    0
 40
0
  0
LTYPE
  2
__25
 70
   64
  3
                                
 72
   65
 73
    0
 40
0
  0
LTYPE
  2
__26
 70
   64
  3
                                
 72
   65
 73
    0
 40
0
  0
LTYPE
  2
__27
 70
   64
  3
                                
 72
   65
 73
    0
 40
0
  0
LTYPE
  2
__28
 70
   64
  3
                                
 72
   65
 73
    0
 40
0
  0
LTYPE
  2
__29
 70
   64
  3
                                
 72
   65
 73
    0
 40
0
  0
LTYPE
  2
__30
 70
   64
  3
                                
 72
   65
 73
    0
 40
0
  0
LTYPE
  2
__31
 70
   64
  3
                                
 72
   65
 73
    0
 40
0
  0
LTYPE
  2
__32
 70
   64
  3
                                
 72
   65
 73
    0
 40
0
  0
ENDTAB
  0
TABLE
  2
STYLE
  5
3
100
AcDbSymbolTable
 70
     1
  0
STYLE
  5
10
100
AcDbSymbolTableRecord
100
AcDbTextStyleTableRecord
  2
STANDARD
 70
     0
 40
0.0
 41
1.0
 50
0.0
 71
     0
 42
0.2
  3
txt
  4
bigfont.shx
  0
STYLE
  5
26
100
AcDbSymbolTableRecord
100
AcDbTextStyleTableRecord
  2
TATEGAKI
 70
    68
 40
0.0
 41
1.0
 50
0.0
 71
     0
 42
1.0
  3
txt
  4
bigfont.shx
  0
ENDTAB
  0
TABLE
  2
LAYER
 70
    4
  0
LAYER
  2
_0-0_LAY
 70
   64
 62
    7
  6
CONTINUOUS
  0
LAYER
  2
_0-9_ADD_LINE
 70
   64
 62
    7
  6
CONTINUOUS
  0
LAYER
  2
_0-a_
 70
   64
 62
    7
  6
CONTINUOUS
  0
LAYER
  2
ADD_LINE
 70
   64
 62
    7
  6
CONTINUOUS
  0
ENDTAB
  0
ENDSEC
  0
SECTION
  2
BLOCKS
  0
ENDSEC
  0
SECTION
  2
ENTITIES
  0
LINE
  8
ADD_LINE
  6
DOT
 62
    7
 10
-55.379882699312247
 20
2364
 11
-55.379882699312247
 21
11.999999999999773
  0
LINE
  8
ADD_LINE
  6
DOT
 62
    7
 10
1592.6201173006871
 20
2364
 11
1592.6201173006871
 21
11.999999999999773
  0
LINE
  8
ADD_LINE
  6
DOT
 62
    7
 10
-55.379882699312247
 20
2364
 11
1592.6201173006871
 21
2364
  0
LINE
  8
ADD_LINE
  6
DOT
 62
    7
 10
-55.379882699312247
 20
11.999999999999773
 11
1592.6201173006871
 21
11.999999999999773
  0
LINE
  8
ADD_LINE
  6
DOT
 62
    7
 10
1767.3798826993111
 20
2364
 11
1767.3798826993111
 21
11.999999999999773
  0
LINE
  8
ADD_LINE
  6
DOT
 62
    7
 10
3415.379882699312
 20
2364
 11
3415.379882699312
 21
11.999999999999773
  0
LINE
  8
ADD_LINE
  6
DOT
 62
    7
 10
1767.3798826993111
 20
2364
 11
3415.379882699312
 21
2364
  0
LINE
  8
ADD_LINE
  6
DOT
 62
    7
 10
1767.3798826993111
 20
11.999999999999773
 11
3415.379882699312
 21
11.999999999999773
  0
LINE
  8
_0-a_
  6
CONTINUOUS
 62
    7
 10
1871.3798826993116
 20
548
 11
2303.3799306993128
 21
548
  0
LINE
  8
_0-a_
  6
CONTINUOUS
 62
    7
 10
1871.3798826993116
 20
963.99999999999943
 11
2303.3799306993128
 21
963.99999999999943
  0
LINE
  8
_0-a_
  6
CONTINUOUS
 62
    7
 10
1871.3798826993116
 20
2260
 11
3311.3798826993116
 21
2260
  0
LINE
  8
_0-a_
  6
CONTINUOUS
 62
    7
 10
1871.3798826993116
 20
2260
 11
1871.3798826993116
 21
116
  0
LINE
  8
_0-a_
  6
CONTINUOUS
 62
    7
 10
2303.3799306993128
 20
2260
 11
2303.3799306993128
 21
2212.0000000000009
  0
LINE
  8
_0-a_
  6
CONTINUOUS
 62
    7
 10
1871.3798826993116
 20
1843.9999999999998
 11
3311.3798826993116
 21
1843.9999999999998
  0
LINE
  8
_0-a_
  6
CONTINUOUS
 62
    7
 10
1871.3798826993116
 20
1427.9999999999998
 11
3311.3798826993116
 21
1427.9999999999998
  0
LINE
  8
_0-a_
  6
CONTINUOUS
 62
    7
 10
1871.3798826993116
 20
1011.9999999999994
 11
3311.3798826993116
 21
1011.9999999999994
  0
LINE
  8
_0-a_
  6
CONTINUOUS
 62
    7
 10
2303.3799306993128
 20
1011.9999999999994
 11
2303.3799306993128
 21
963.99999999999943
  0
LINE
  8
_0-a_
  6
CONTINUOUS
 62
    7
 10
1871.3798826993116
 20
595.99999999999943
 11
3311.3798826993116
 21
595.99999999999943
  0
LINE
  8
_0-a_
  6
CONTINUOUS
 62
    7
 10
2303.3799306993128
 20
595.99999999999943
 11
2303.3799306993128
 21
548
  0
TEXT
  8
_0-a_
 62
    7
 10
1904.2912896003077
 20
2222.0785313733727
 40
28
 41
1
 50
0
  1
MNLK-7545S5K
  0
TEXT
  8
_0-a_
 62
    7
 10
1904.2912896003077
 20
1806.0785313733729
 40
28
 41
1
 50
0
  1
MNLK-7550S6K
  0
TEXT
  8
_0-a_
 62
    7
 10
1903.7159082618937
 20
1389.3155666188497
 40
28
 41
1
 50
0
  1
MNLK-7560S7K
  0
LINE
  8
_0-a_
  6
CONTINUOUS
 62
    7
 10
1871.3798826993116
 20
1379.9999999999998
 11
2303.3799306993128
 21
1379.9999999999998
  0
LINE
  8
_0-a_
  6
CONTINUOUS
 62
    7
 10
1871.3798826993116
 20
2212.0000000000009
 11
2303.3799306993128
 21
2212.0000000000009
  0
LINE
  8
_0-a_
  6
CONTINUOUS
 62
    7
 10
1871.3798826993116
 20
1795.9999999999998
 11
2303.3799306993128
 21
1795.9999999999998
  0
LINE
  8
_0-a_
  6
CONTINUOUS
 62
    7
 10
2303.3799306993128
 20
1843.9999999999998
 11
2303.3799306993128
 21
1795.9999999999998
  0
LINE
  8
_0-a_
  6
CONTINUOUS
 62
    7
 10
2303.3799306993128
 20
1427.9999999999998
 11
2303.3799306993128
 21
1379.9999999999998
  0
LINE
  8
_0-a_
  6
CONTINUOUS
 62
    7
 10
1871.3798826993116
 20
180
 11
3311.3798826993107
 21
180
  0
LINE
  8
_0-a_
  6
CONTINUOUS
 62
    7
 10
2271.3798826993116
 20
180
 11
2271.3798826993116
 21
116
  0
LINE
  8
_0-a_
  6
CONTINUOUS
 62
    7
 10
2719.3798826993107
 20
180
 11
2719.3798826993107
 21
116
  0
LINE
  8
_0-a_
  6
CONTINUOUS
 62
    7
 10
3119.3798826993116
 20
156
 11
3311.3798826993107
 21
156
  0
LINE
  8
_0-a_
  6
CONTINUOUS
 62
    7
 10
3119.3798826993116
 20
180
 11
3119.3798826993116
 21
116
  0
LINE
  8
_0-a_
  6
CONTINUOUS
 62
    7
 10
3215.3798826993107
 20
180
 11
3215.3798826993107
 21
116
  0
TEXT
  8
_0-a_
 62
    7
 10
1903.3798826993111
 20
135.99999999999977
 40
24.000000000000227
 41
0.9999999999999906
 50
0
  1
メ－ス（押出成形セメント板）
  0
TEXT
  8
_0-a_
 62
    7
 10
2351.3798826993116
 20
135.99999999999977
 40
24
 41
0.9999999999999995
 50
0
  1
アイカテック建材株式会社
  0
TEXT
  8
_0-a_
 62
    7
 10
3129.8798826993116
 20
160.5
 40
15
 41
1
 50
0
  1
ＳＣＡＬＥ
  0
TEXT
  8
_0-a_
 62
    7
 10
3237.1298826993111
 20
160.5
 40
15
 41
1
 50
0
  1
図面No.
  0
TEXT
  8
_0-a_
 62
    7
 10
3146.3798826993111
 20
121.99999999999977
 40
28
 41
1
 50
0
  1
1/8
  0
TEXT
  8
_0-a_
 62
    7
 10
2835.3798826993125
 20
136
 40
24.000000000000227
 41
0.9999999999999924
 50
0
  1
ルーバーパネル
  0
LINE
  8
_0-a_
  6
CONTINUOUS
 62
    7
 10
1871.3798826993116
 20
116
 11
3311.3798826993116
 21
116
  0
LINE
  8
_0-a_
  6
CONTINUOUS
 62
    7
 10
3311.3798826993116
 20
2260
 11
3311.3798826993116
 21
116
  0
LINE
  8
_0-a_
  6
CONTINUOUS
 62
    7
 10
48.620117300687525
 20
548
 11
480.6201653006874
 21
548
  0
LINE
  8
_0-a_
  6
CONTINUOUS
 62
    7
 10
48.620117300687525
 20
963.99999999999943
 11
480.6201653006874
 21
963.99999999999943
  0
LINE
  8
_0-a_
  6
CONTINUOUS
 62
    7
 10
48.620117300687525
 20
2260
 11
1488.6201173006875
 21
2260
  0
LINE
  8
_0-a_
  6
CONTINUOUS
 62
    7
 10
48.620117300687525
 20
2260
 11
48.620117300687525
 21
116
  0
LINE
  8
_0-a_
  6
CONTINUOUS
 62
    7
 10
480.6201653006874
 20
2260
 11
480.6201653006874
 21
2212.0000000000009
  0
LINE
  8
_0-a_
  6
CONTINUOUS
 62
    7
 10
480.6201653006874
 20
1011.9999999999994
 11
480.6201653006874
 21
963.99999999999943
  0
LINE
  8
_0-a_
  6
CONTINUOUS
 62
    7
 10
48.620117300687525
 20
595.99999999999943
 11
1488.6201173006875
 21
595.99999999999943
  0
LINE
  8
_0-a_
  6
CONTINUOUS
 62
    7
 10
480.6201653006874
 20
595.99999999999943
 11
480.6201653006874
 21
548
  0
TEXT
  8
_0-a_
 62
    7
 10
81.916574120584301
 20
2221.2866605987538
 40
28
 41
1
 50
0
  1
MNLK-6045S5K
  0
TEXT
  8
_0-a_
 62
    7
 10
80.74855224676412
 20
1803.6915893460359
 40
28
 41
1
 50
0
  1
MNLK-6050S6K
  0
TEXT
  8
_0-a_
 62
    7
 10
80.220061022452683
 20
1389.3887764960348
 40
28
 41
1
 50
0
  1
MNLK-6060S7K
  0
LINE
  8
_0-a_
  6
CONTINUOUS
 62
    7
 10
48.620117300687525
 20
2212.0000000000009
 11
480.6201653006874
 21
2212.0000000000009
  0
LINE
  8
_0-a_
  6
CONTINUOUS
 62
    7
 10
48.620117300687525
 20
1795.9999999999998
 11
480.6201653006874
 21
1795.9999999999998
  0
LINE
  8
_0-a_
  6
CONTINUOUS
 62
    7
 10
48.620117300687525
 20
1843.9999999999998
 11
1488.6201173006875
 21
1843.9999999999998
  0
LINE
  8
_0-a_
  6
CONTINUOUS
 62
    7
 10
480.6201653006874
 20
1843.9999999999998
 11
480.6201653006874
 21
1795.9999999999998
  0
LINE
  8
_0-a_
  6
CONTINUOUS
 62
    7
 10
48.620117300687525
 20
1427.9999999999998
 11
1488.6201173006875
 21
1427.9999999999998
  0
LINE
  8
_0-a_
  6
CONTINUOUS
 62
    7
 10
48.620117300687525
 20
1379.9999999999998
 11
480.6201653006874
 21
1379.9999999999998
  0
LINE
  8
_0-a_
  6
CONTINUOUS
 62
    7
 10
480.6201653006874
 20
1427.9999999999998
 11
480.6201653006874
 21
1379.9999999999998
  0
LINE
  8
_0-a_
  6
CONTINUOUS
 62
    7
 10
48.620117300687525
 20
1011.9999999999994
 11
1488.6201173006875
 21
1011.9999999999994
  0
LINE
  8
_0-a_
  6
CONTINUOUS
 62
    7
 10
48.620117300687525
 20
180
 11
1488.6201173006866
 21
180
  0
LINE
  8
_0-a_
  6
CONTINUOUS
 62
    7
 10
448.62011730068753
 20
180
 11
448.62011730068753
 21
116
  0
LINE
  8
_0-a_
  6
CONTINUOUS
 62
    7
 10
896.6201173006865
 20
180
 11
896.6201173006865
 21
116
  0
LINE
  8
_0-a_
  6
CONTINUOUS
 62
    7
 10
1296.6201173006875
 20
156
 11
1488.6201173006866
 21
156
  0
LINE
  8
_0-a_
  6
CONTINUOUS
 62
    7
 10
1296.6201173006875
 20
180
 11
1296.6201173006875
 21
116
  0
LINE
  8
_0-a_
  6
CONTINUOUS
 62
    7
 10
1392.6201173006866
 20
180
 11
1392.6201173006866
 21
116
  0
TEXT
  8
_0-a_
 62
    7
 10
80.62011730068707
 20
135.99999999999977
 40
24.000000000000227
 41
0.9999999999999906
 50
0
  1
メ－ス（押出成形セメント板）
  0
TEXT
  8
_0-a_
 62
    7
 10
528.62011730068753
 20
135.99999999999977
 40
24
 41
0.9999999999999995
 50
0
  1
アイカテック建材株式会社
  0
TEXT
  8
_0-a_
 62
    7
 10
1307.1201173006875
 20
160.5
 40
15
 41
1
 50
0
  1
ＳＣＡＬＥ
  0
TEXT
  8
_0-a_
 62
    7
 10
1414.3701173006871
 20
160.5
 40
15
 41
1
 50
0
  1
図面No.
  0
TEXT
  8
_0-a_
 62
    7
 10
1323.6201173006871
 20
121.99999999999977
 40
28
 41
1
 50
0
  1
1/8
  0
LINE
  8
_0-a_
  6
CONTINUOUS
 62
    7
 10
48.620117300687525
 20
116
 11
1488.6201173006875
 21
116
  0
LINE
  8
_0-a_
  6
CONTINUOUS
 62
    7
 10
1488.6201173006875
 20
2260
 11
1488.6201173006875
 21
116
  0
TEXT
  8
_0-a_
 62
    7
 10
1012.6201173006883
 20
136
 40
24.000000000000227
 41
0.9999999999999924
 50
0
  1
ルーバーパネル
  0
TEXT
  8
_0-a_
 62
    7
 10
1405.6201173006871
 20
121.99999999999977
 40
28
 41
1
 50
0
  1
S-5-1
  0
LINE
  8
_0-0_LAY
  6
CENTER1
 62
    2
 10
2286.1860815030805
 20
2059.500001561365
 11
2286.1860815030805
 21
2043.5000015613648
  0
LINE
  8
_0-0_LAY
  6
CENTER1
 62
    2
 10
2366.1860409180968
 20
2004.5000337052497
 11
2351.1860409180968
 21
2004.5000337052497
  0
LINE
  8
_0-0_LAY
  6
CENTER1
 62
    2
 10
2292.4031590080776
 20
2051.500001561365
 11
2278.6860815030795
 21
2051.500001561365
  0
LINE
  8
_0-0_LAY
  6
CONTINUOUS
 62
    2
 10
1988.6860815030807
 20
1992.4999999999998
 11
1990.6860815030807
 21
1990.4999999999998
  0
LINE
  8
_0-0_LAY
  6
CONTINUOUS
 62
    2
 10
1990.6860815030807
 20
2065.5
 11
1988.6860815030807
 21
2063.5
  0
LINE
  8
_0-0_LAY
  6
CONTINUOUS
 62
    2
 10
1988.6860815030807
 20
2063.5
 11
1988.6860815030807
 21
1992.4999999999998
  0
LINE
  8
_0-0_LAY
  6
CONTINUOUS
 62
    2
 10
2436.6860815030805
 20
2065.5
 11
1990.6860815030807
 21
2065.5
  0
LINE
  8
_0-0_LAY
  6
CONTINUOUS
 62
    2
 10
2436.6860815030805
 20
2065.5
 11
2438.6860815030795
 21
2063.5
  0
LINE
  8
_0-0_LAY
  6
CONTINUOUS
 62
    2
 10
2438.6860815030795
 20
1992.4999999999998
 11
2438.6860815030795
 21
2063.5
  0
LINE
  8
_0-0_LAY
  6
CONTINUOUS
 62
    2
 10
2436.6860815030805
 20
1990.4999999999998
 11
1990.6860815030807
 21
1990.4999999999998
  0
LINE
  8
_0-0_LAY
  6
CONTINUOUS
 62
    2
 10
2438.6860815030795
 20
1992.4999999999998
 11
2436.6860815030805
 21
1990.4999999999998
  0
LINE
  8
_0-0_LAY
  6
CENTER1
 62
    2
 10
2358.6860409180968
 20
2012.5000337052497
 11
2358.6860409180968
 21
1996.5000337052497
  0
CIRCLE
  8
_0-0_LAY
  6
CONTINUOUS
 62
    2
 10
2358.6861626730465
 20
2004.4999325895008
 40
1.3
  0
LINE
  8
_0-0_LAY
  6
CENTER1
 62
    2
 10
2221.1860409180968
 20
2004.5000337052497
 11
2206.1860409180977
 21
2004.5000337052497
  0
LINE
  8
_0-0_LAY
  6
CENTER1
 62
    2
 10
2213.6860409180968
 20
2012.5000337052497
 11
2213.6860409180968
 21
1996.5000337052497
  0
CIRCLE
  8
_0-0_LAY
  6
CONTINUOUS
 62
    2
 10
2213.6861626730465
 20
2004.4999325895008
 40
1.3
  0
LINE
  8
_0-0_LAY
  6
CENTER1
 62
    2
 10
2141.1860815030805
 20
2059.5
 11
2141.1860815030805
 21
2043.4999999999998
  0
LINE
  8
_0-0_LAY
  6
CENTER1
 62
    2
 10
2147.4031590080776
 20
2051.5
 11
2133.6860815030795
 21
2051.5
  0
CIRCLE
  8
_0-0_LAY
  6
CONTINUOUS
 62
    2
 10
2141.1860806083578
 20
2051.4999976579538
 40
1.3
  0
LINE
  8
_0-0_LAY
  6
CENTER1
 62
    2
 10
2068.6860409180968
 20
2012.5000337052497
 11
2068.6860409180968
 21
1996.5000337052497
  0
LINE
  8
_0-0_LAY
  6
CENTER1
 62
    2
 10
2076.1860409180968
 20
2004.5000337052497
 11
2061.1860409180968
 21
2004.5000337052497
  0
CIRCLE
  8
_0-0_LAY
  6
CONTINUOUS
 62
    2
 10
2068.6861626730465
 20
2004.4999325895008
 40
1.3
  0
CIRCLE
  8
_0-0_LAY
  6
CONTINUOUS
 62
    2
 10
2286.1860806083578
 20
2051.4999992193179
 40
1.3
  0
ARC
  8
_0-0_LAY
  6
CONTINUOUS
 62
    2
 10
2011.6860815030795
 20
2043.4999999999998
 40
7.9999999999999982
 50
90
 51
180
  0
LINE
  8
_0-0_LAY
  6
CONTINUOUS
 62
    2
 10
2053.1860815030795
 20
2051.5
 11
2011.6860815030795
 21
2051.5
  0
ARC
  8
_0-0_LAY
  6
CONTINUOUS
 62
    2
 10
2053.1860815030795
 20
2043.4999999999998
 40
7.9999999999999982
 50
0
 51
90
  0
LINE
  8
_0-0_LAY
  6
CONTINUOUS
 62
    2
 10
2003.6860815030807
 20
2012.4999999999998
 11
2003.6860815030807
 21
2043.4999999999998
  0
ARC
  8
_0-0_LAY
  6
CONTINUOUS
 62
    2
 10
2011.6860815030795
 20
2012.4999999999998
 40
7.9999999999999982
 50
180
 51
270
  0
ARC
  8
_0-0_LAY
  6
CONTINUOUS
 62
    2
 10
2084.1860815030795
 20
2043.4999999999998
 40
7.9999999999999982
 50
90
 51
180
  0
ARC
  8
_0-0_LAY
  6
CONTINUOUS
 62
    2
 10
2125.6860815030805
 20
2012.4999999999998
 40
7.9999999999999982
 50
270
 51
0
  0
ARC
  8
_0-0_LAY
  6
CONTINUOUS
 62
    2
 10
2156.6860815030795
 20
2012.4999999999998
 40
7.9999999999999982
 50
180
 51
270
  0
ARC
  8
_0-0_LAY
  6
CONTINUOUS
 62
    2
 10
2198.1860815030795
 20
2043.4999999999998
 40
7.9999999999999982
 50
0
 51
90
  0
ARC
  8
_0-0_LAY
  6
CONTINUOUS
 62
    2
 10
2229.1860815030805
 20
2043.4999999999998
 40
7.9999999999999982
 50
90
 51
180
  0
ARC
  8
_0-0_LAY
  6
CONTINUOUS
 62
    2
 10
2270.6860815030805
 20
2012.4999999999998
 40
7.9999999999999982
 50
270
 51
0
  0
ARC
  8
_0-0_LAY
  6
CONTINUOUS
 62
    2
 10
2301.6860815030795
 20
2012.4999999999998
 40
7.9999999999999982
 50
180
 51
270
  0
ARC
  8
_0-0_LAY
  6
CONTINUOUS
 62
    2
 10
2343.1860815030795
 20
2043.4999999999998
 40
7.9999999999999982
 50
0
 51
90
  0
ARC
  8
_0-0_LAY
  6
CONTINUOUS
 62
    2
 10
2374.1860815030805
 20
2043.4999999999998
 40
7.9999999999999982
 50
90
 51
180
  0
LINE
  8
_0-0_LAY
  6
CONTINUOUS
 62
    2
 10
2415.6860815030805
 20
2051.5
 11
2374.1860815030805
 21
2051.5
  0
ARC
  8
_0-0_LAY
  6
CONTINUOUS
 62
    2
 10
2415.6860815030805
 20
2043.4999999999998
 40
7.9999999999999982
 50
0
 51
90
  0
LINE
  8
_0-0_LAY
  6
CONTINUOUS
 62
    2
 10
2423.6860815030805
 20
2012.4999999999998
 11
2423.6860815030805
 21
2043.4999999999998
  0
ARC
  8
_0-0_LAY
  6
CONTINUOUS
 62
    2
 10
2415.6860815030805
 20
2012.4999999999998
 40
7.9999999999999982
 50
270
 51
0
  0
LINE
  8
_0-0_LAY
  6
CONTINUOUS
 62
    2
 10
2061.1860815030795
 20
2012.4999999999998
 11
2061.1860815030795
 21
2043.4999999999998
  0
LINE
  8
_0-0_LAY
  6
CONTINUOUS
 62
    2
 10
2053.1860815030795
 20
2004.4999999999998
 11
2011.6860815030795
 21
2004.4999999999998
  0
LINE
  8
_0-0_LAY
  6
CONTINUOUS
 62
    2
 10
2061.1860815030795
 20
2012.4999999999998
 11
2053.1860815030795
 21
2004.4999999999998
  0
LINE
  8
_0-0_LAY
  6
CONTINUOUS
 62
    2
 10
2076.1860815030805
 20
2012.4999999999998
 11
2076.1860815030805
 21
2043.4999999999998
  0
LINE
  8
_0-0_LAY
  6
CONTINUOUS
 62
    2
 10
2084.1860815030795
 20
2004.4999999999998
 11
2125.6860815030805
 21
2004.4999999999998
  0
LINE
  8
_0-0_LAY
  6
CONTINUOUS
 62
    2
 10
2076.1860815030805
 20
2012.4999999999998
 11
2084.1860815030795
 21
2004.4999999999998
  0
LINE
  8
_0-0_LAY
  6
CONTINUOUS
 62
    2
 10
2156.6860815030795
 20
2051.5
 11
2198.1860815030795
 21
2051.5
  0
LINE
  8
_0-0_LAY
  6
CONTINUOUS
 62
    2
 10
2148.6860815030805
 20
2043.4999999999998
 11
2148.6860815030805
 21
2012.4999999999998
  0
LINE
  8
_0-0_LAY
  6
CONTINUOUS
 62
    2
 10
2156.6860815030795
 20
2051.5
 11
2148.6860815030805
 21
2043.4999999999998
  0
LINE
  8
_0-0_LAY
  6
CONTINUOUS
 62
    2
 10
2206.1860815030795
 20
2012.4999999999998
 11
2206.1860815030795
 21
2043.4999999999998
  0
LINE
  8
_0-0_LAY
  6
CONTINUOUS
 62
    2
 10
2198.1860815030795
 20
2004.4999999999998
 11
2156.6860815030795
 21
2004.4999999999998
  0
LINE
  8
_0-0_LAY
  6
CONTINUOUS
 62
    2
 10
2206.1860815030795
 20
2012.4999999999998
 11
2198.1860815030795
 21
2004.4999999999998
  0
LINE
  8
_0-0_LAY
  6
CONTINUOUS
 62
    2
 10
2221.1860815030805
 20
2012.4999999999998
 11
2221.1860815030805
 21
2043.4999999999998
  0
LINE
  8
_0-0_LAY
  6
CONTINUOUS
 62
    2
 10
2229.1860815030805
 20
2004.4999999999998
 11
2270.6860815030805
 21
2004.4999999999998
  0
LINE
  8
_0-0_LAY
  6
CONTINUOUS
 62
    2
 10
2221.1860815030805
 20
2012.4999999999998
 11
2229.1860815030805
 21
2004.4999999999998
  0
LINE
  8
_0-0_LAY
  6
CONTINUOUS
 62
    2
 10
2270.6860815030805
 20
2051.5
 11
2229.1860815030805
 21
2051.5
  0
LINE
  8
_0-0_LAY
  6
CONTINUOUS
 62
    2
 10
2278.6860815030795
 20
2043.4999999999998
 11
2278.6860815030795
 21
2012.4999999999998
  0
LINE
  8
_0-0_LAY
  6
CONTINUOUS
 62
    2
 10
2270.6860815030805
 20
2051.5
 11
2278.6860815030795
 21
2043.4999999999998
  0
LINE
  8
_0-0_LAY
  6
CONTINUOUS
 62
    2
 10
2293.6860815030795
 20
2043.4999999999998
 11
2293.6860815030795
 21
2012.4999999999998
  0
LINE
  8
_0-0_LAY
  6
CONTINUOUS
 62
    2
 10
2301.6860815030795
 20
2051.5
 11
2343.1860815030795
 21
2051.5
  0
LINE
  8
_0-0_LAY
  6
CONTINUOUS
 62
    2
 10
2293.6860815030795
 20
2043.4999999999998
 11
2301.6860815030795
 21
2051.5
  0
LINE
  8
_0-0_LAY
  6
CONTINUOUS
 62
    2
 10
2351.1860815030795
 20
2012.4999999999998
 11
2351.1860815030795
 21
2043.4999999999998
  0
LINE
  8
_0-0_LAY
  6
CONTINUOUS
 62
    2
 10
2343.1860815030795
 20
2004.4999999999998
 11
2301.6860815030795
 21
2004.4999999999998
  0
LINE
  8
_0-0_LAY
  6
CONTINUOUS
 62
    2
 10
2351.1860815030795
 20
2012.4999999999998
 11
2343.1860815030795
 21
2004.4999999999998
  0
LINE
  8
_0-0_LAY
  6
CONTINUOUS
 62
    2
 10
2366.1860815030795
 20
2012.4999999999998
 11
2366.1860815030795
 21
2043.4999999999998
  0
LINE
  8
_0-0_LAY
  6
CONTINUOUS
 62
    2
 10
2374.1860815030805
 20
2004.4999999999998
 11
2415.6860815030805
 21
2004.4999999999998
  0
LINE
  8
_0-0_LAY
  6
CONTINUOUS
 62
    2
 10
2366.1860815030795
 20
2012.4999999999998
 11
2374.1860815030805
 21
2004.4999999999998
  0
LINE
  8
_0-0_LAY
  6
CONTINUOUS
 62
    2
 10
2125.6860815030805
 20
2051.5
 11
2084.1860815030795
 21
2051.5
  0
LINE
  8
_0-0_LAY
  6
CONTINUOUS
 62
    2
 10
2133.6860815030795
 20
2043.4999999999998
 11
2133.6860815030795
 21
2012.4999999999998
  0
LINE
  8
_0-0_LAY
  6
CONTINUOUS
 62
    2
 10
2125.6860815030805
 20
2051.5
 11
2133.6860815030795
 21
2043.4999999999998
  0
LINE
  8
_0-0_LAY
  6
CONTINUOUS
 62
    2
 10
2488.6860815030805
 20
1647.4999999999998
 11
2488.6860815030805
 21
1576.4999999999998
  0
LINE
  8
_0-0_LAY
  6
CONTINUOUS
 62
    2
 10
2050.1860815030795
 20
1588.4999999999998
 11
2058.1860815030795
 21
1596.4999999999998
  0
LINE
  8
_0-0_LAY
  6
CONTINUOUS
 62
    2
 10
2142.3860815030798
 20
1627.4999999999998
 11
2150.3860815030807
 21
1635.4999999999998
  0
LINE
  8
_0-0_LAY
  6
CONTINUOUS
 62
    2
 10
2196.5860815030805
 20
1596.4999999999998
 11
2188.5860815030805
 21
1588.4999999999998
  0
LINE
  8
_0-0_LAY
  6
CONTINUOUS
 62
    2
 10
2211.5860815030796
 20
1596.4999999999998
 11
2219.5860815030805
 21
1588.4999999999998
  0
LINE
  8
_0-0_LAY
  6
CONTINUOUS
 62
    2
 10
2257.7860815030808
 20
1635.4999999999998
 11
2265.7860815030808
 21
1627.4999999999998
  0
LINE
  8
_0-0_LAY
  6
CONTINUOUS
 62
    2
 10
2280.7860815030808
 20
1627.4999999999998
 11
2288.7860815030808
 21
1635.4999999999998
  0
LINE
  8
_0-0_LAY
  6
CONTINUOUS
 62
    2
 10
2326.9860815030806
 20
1588.4999999999998
 11
2334.9860815030806
 21
1596.4999999999998
  0
LINE
  8
_0-0_LAY
  6
CONTINUOUS
 62
    2
 10
2349.9860815030806
 20
1596.4999999999998
 11
2357.9860815030806
 21
1588.4999999999998
  0
LINE
  8
_0-0_LAY
  6
CONTINUOUS
 62
    2
 10
2396.1860815030795
 20
1635.4999999999998
 11
2404.1860815030805
 21
1627.4999999999998
  0
LINE
  8
_0-0_LAY
  6
CONTINUOUS
 62
    2
 10
2419.1860815030805
 20
1627.4999999999998
 11
2427.1860815030805
 21
1635.4999999999998
  0
LINE
  8
_0-0_LAY
  6
CONTINUOUS
 62
    2
 10
2465.3860815030807
 20
1635.4999999999998
 11
2427.1860815030805
 21
1635.4999999999998
  0
ARC
  8
_0-0_LAY
  6
CONTINUOUS
 62
    2
 10
2465.3860815030807
 20
1627.4999999999998
 40
8
 50
0
 51
90
  0
LINE
  8
_0-0_LAY
  6
CONTINUOUS
 62
    2
 10
2473.3860815030807
 20
1596.4999999999998
 11
2473.3860815030807
 21
1627.4999999999998
  0
ARC
  8
_0-0_LAY
  6
CONTINUOUS
 62
    2
 10
2465.3860815030807
 20
1596.4999999999998
 40
8
 50
270
 51
0
  0
LINE
  8
_0-0_LAY
  6
CONTINUOUS
 62
    2
 10
2419.1860815030805
 20
1596.4999999999998
 11
2419.1860815030805
 21
1627.4999999999998
  0
LINE
  8
_0-0_LAY
  6
CONTINUOUS
 62
    2
 10
2427.1860815030805
 20
1588.4999999999998
 11
2465.3860815030807
 21
1588.4999999999998
  0
ARC
  8
_0-0_LAY
  6
CONTINUOUS
 62
    2
 10
2427.1860815030805
 20
1596.4999999999998
 40
8
 50
180
 51
270
  0
LINE
  8
_0-0_LAY
  6
CONTINUOUS
 62
    2
 10
2404.1860815030805
 20
1596.4999999999998
 11
2404.1860815030805
 21
1627.4999999999998
  0
LINE
  8
_0-0_LAY
  6
CONTINUOUS
 62
    2
 10
2396.1860815030795
 20
1588.4999999999998
 11
2357.9860815030806
 21
1588.4999999999998
  0
ARC
  8
_0-0_LAY
  6
CONTINUOUS
 62
    2
 10
2396.1860815030795
 20
1596.4999999999998
 40
8
 50
270
 51
0
  0
LINE
  8
_0-0_LAY
  6
CONTINUOUS
 62
    2
 10
2357.9860815030806
 20
1635.4999999999998
 11
2396.1860815030795
 21
1635.4999999999998
  0
LINE
  8
_0-0_LAY
  6
CONTINUOUS
 62
    2
 10
2349.9860815030806
 20
1627.4999999999998
 11
2349.9860815030806
 21
1596.4999999999998
  0
ARC
  8
_0-0_LAY
  6
CONTINUOUS
 62
    2
 10
2357.9860815030806
 20
1627.4999999999998
 40
8
 50
90
 51
180
  0
LINE
  8
_0-0_LAY
  6
CONTINUOUS
 62
    2
 10
2326.9860815030806
 20
1635.4999999999998
 11
2288.7860815030808
 21
1635.4999999999998
  0
LINE
  8
_0-0_LAY
  6
CONTINUOUS
 62
    2
 10
2334.9860815030806
 20
1627.4999999999998
 11
2334.9860815030806
 21
1596.4999999999998
  0
ARC
  8
_0-0_LAY
  6
CONTINUOUS
 62
    2
 10
2326.9860815030806
 20
1627.4999999999998
 40
8
 50
0
 51
90
  0
LINE
  8
_0-0_LAY
  6
CONTINUOUS
 62
    2
 10
2280.7860815030808
 20
1596.4999999999998
 11
2280.7860815030808
 21
1627.4999999999998
  0
LINE
  8
_0-0_LAY
  6
CONTINUOUS
 62
    2
 10
2288.7860815030808
 20
1588.4999999999998
 11
2326.9860815030806
 21
1588.4999999999998
  0
ARC
  8
_0-0_LAY
  6
CONTINUOUS
 62
    2
 10
2288.7860815030808
 20
1596.4999999999998
 40
8
 50
180
 51
270
  0
LINE
  8
_0-0_LAY
  6
CONTINUOUS
 62
    2
 10
2265.7860815030808
 20
1596.4999999999998
 11
2265.7860815030808
 21
1627.4999999999998
  0
LINE
  8
_0-0_LAY
  6
CONTINUOUS
 62
    2
 10
2257.7860815030808
 20
1588.4999999999998
 11
2219.5860815030805
 21
1588.4999999999998
  0
ARC
  8
_0-0_LAY
  6
CONTINUOUS
 62
    2
 10
2257.7860815030808
 20
1596.4999999999998
 40
8
 50
270
 51
0
  0
LINE
  8
_0-0_LAY
  6
CONTINUOUS
 62
    2
 10
2219.5860815030805
 20
1635.4999999999998
 11
2257.7860815030808
 21
1635.4999999999998
  0
LINE
  8
_0-0_LAY
  6
CONTINUOUS
 62
    2
 10
2211.5860815030796
 20
1627.4999999999998
 11
2211.5860815030796
 21
1596.4999999999998
  0
ARC
  8
_0-0_LAY
  6
CONTINUOUS
 62
    2
 10
2219.5860815030805
 20
1627.4999999999998
 40
8
 50
90
 51
180
  0
LINE
  8
_0-0_LAY
  6
CONTINUOUS
 62
    2
 10
2196.5860815030805
 20
1627.4999999999998
 11
2196.5860815030805
 21
1596.4999999999998
  0
ARC
  8
_0-0_LAY
  6
CONTINUOUS
 62
    2
 10
2188.5860815030805
 20
1627.4999999999998
 40
8
 50
0
 51
90
  0
LINE
  8
_0-0_LAY
  6
CONTINUOUS
 62
    2
 10
2142.3860815030798
 20
1596.4999999999998
 11
2142.3860815030798
 21
1627.4999999999998
  0
LINE
  8
_0-0_LAY
  6
CONTINUOUS
 62
    2
 10
2150.3860815030807
 20
1588.4999999999998
 11
2188.5860815030805
 21
1588.4999999999998
  0
ARC
  8
_0-0_LAY
  6
CONTINUOUS
 62
    2
 10
2150.3860815030807
 20
1596.4999999999998
 40
8
 50
180
 51
270
  0
LINE
  8
_0-0_LAY
  6
CONTINUOUS
 62
    2
 10
2058.1860815030795
 20
1627.4999999999998
 11
2058.1860815030795
 21
1596.4999999999998
  0
ARC
  8
_0-0_LAY
  6
CONTINUOUS
 62
    2
 10
2050.1860815030795
 20
1627.4999999999998
 40
8
 50
0
 51
90
  0
LINE
  8
_0-0_LAY
  6
CONTINUOUS
 62
    2
 10
2011.9860815030806
 20
1635.4999999999998
 11
2050.1860815030795
 21
1635.4999999999998
  0
ARC
  8
_0-0_LAY
  6
CONTINUOUS
 62
    2
 10
2011.9860815030806
 20
1627.4999999999998
 40
8
 50
90
 51
180
  0
LINE
  8
_0-0_LAY
  6
CONTINUOUS
 62
    2
 10
2003.9860815030806
 20
1596.4999999999998
 11
2003.9860815030806
 21
1627.4999999999998
  0
LINE
  8
_0-0_LAY
  6
CONTINUOUS
 62
    2
 10
2011.9860815030806
 20
1588.4999999999998
 11
2050.1860815030795
 21
1588.4999999999998
  0
ARC
  8
_0-0_LAY
  6
CONTINUOUS
 62
    2
 10
2011.9860815030806
 20
1596.4999999999998
 40
8
 50
180
 51
270
  0
ARC
  8
_0-0_LAY
  6
CONTINUOUS
 62
    2
 10
2119.3860815030798
 20
1596.4999999999998
 40
8
 50
270
 51
0
  0
LINE
  8
_0-0_LAY
  6
CONTINUOUS
 62
    2
 10
2073.1860815030795
 20
1627.4999999999998
 11
2073.1860815030795
 21
1596.4999999999998
  0
ARC
  8
_0-0_LAY
  6
CONTINUOUS
 62
    2
 10
2081.1860815030795
 20
1627.4999999999998
 40
8
 50
90
 51
180
  0
LINE
  8
_0-0_LAY
  6
CONTINUOUS
 62
    2
 10
2119.3860815030798
 20
1635.4999999999998
 11
2081.1860815030795
 21
1635.4999999999998
  0
LINE
  8
_0-0_LAY
  6
CONTINUOUS
 62
    2
 10
2127.3860815030798
 20
1627.4999999999998
 11
2127.3860815030798
 21
1596.4999999999998
  0
LINE
  8
_0-0_LAY
  6
CONTINUOUS
 62
    2
 10
2119.3860815030798
 20
1635.4999999999998
 11
2127.3860815030798
 21
1627.4999999999998
  0
LINE
  8
_0-0_LAY
  6
CONTINUOUS
 62
    2
 10
2073.1860815030795
 20
1596.4999999999998
 11
2081.1860815030795
 21
1588.4999999999998
  0
LINE
  8
_0-0_LAY
  6
CONTINUOUS
 62
    2
 10
2188.5860815030805
 20
1635.4999999999998
 11
2150.3860815030807
 21
1635.4999999999998
  0
LINE
  8
_0-0_LAY
  6
CENTER1
 62
    2
 10
2065.6860815030805
 20
1596.4999999999998
 11
2065.6860815030805
 21
1580.4999999999998
  0
LINE
  8
_0-0_LAY
  6
CENTER1
 62
    2
 10
2073.1860815030795
 20
1588.4999999999998
 11
2058.1860815030795
 21
1588.4999999999998
  0
LINE
  8
_0-0_LAY
  6
CENTER1
 62
    2
 10
2134.8860815030807
 20
1643.4999999999998
 11
2134.8860815030807
 21
1627.4999999999998
  0
LINE
  8
_0-0_LAY
  6
CENTER1
 62
    2
 10
2141.1031590080775
 20
1635.4999999999998
 11
2127.3860815030798
 21
1635.4999999999998
  0
LINE
  8
_0-0_LAY
  6
CONTINUOUS
 62
    2
 10
2119.3860815030798
 20
1588.4999999999998
 11
2081.1860815030795
 21
1588.4999999999998
  0
CIRCLE
  8
_0-0_LAY
  6
CONTINUOUS
 62
    2
 10
2065.6862032580298
 20
1588.4998988842508
 40
1.3
  0
CIRCLE
  8
_0-0_LAY
  6
CONTINUOUS
 62
    2
 10
2134.8860806083576
 20
1635.4999976579538
 40
1.3
  0
LINE
  8
_0-0_LAY
  6
CENTER1
 62
    2
 10
2273.2860815030808
 20
1643.4999999999998
 11
2273.2860815030808
 21
1627.4999999999998
  0
LINE
  8
_0-0_LAY
  6
CENTER1
 62
    2
 10
2279.5031590080775
 20
1635.4999999999998
 11
2265.7860815030808
 21
1635.4999999999998
  0
CIRCLE
  8
_0-0_LAY
  6
CONTINUOUS
 62
    2
 10
2273.2860806083577
 20
1635.4999976579538
 40
1.3
  0
LINE
  8
_0-0_LAY
  6
CENTER1
 62
    2
 10
2211.5860815030796
 20
1588.4999999999998
 11
2196.5860815030805
 21
1588.4999999999998
  0
LINE
  8
_0-0_LAY
  6
CENTER1
 62
    2
 10
2204.0860815030796
 20
1596.4999999999998
 11
2204.0860815030796
 21
1580.4999999999998
  0
CIRCLE
  8
_0-0_LAY
  6
CONTINUOUS
 62
    2
 10
2204.0862032580308
 20
1588.4998988842508
 40
1.3
  0
LINE
  8
_0-0_LAY
  6
CENTER1
 62
    2
 10
2411.6860815030805
 20
1643.4999999999998
 11
2411.6860815030805
 21
1627.4999999999998
  0
LINE
  8
_0-0_LAY
  6
CENTER1
 62
    2
 10
2417.9031590080776
 20
1635.4999999999998
 11
2404.1860815030805
 21
1635.4999999999998
  0
CIRCLE
  8
_0-0_LAY
  6
CONTINUOUS
 62
    2
 10
2411.6860806083587
 20
1635.4999976579538
 40
1.3
  0
LINE
  8
_0-0_LAY
  6
CENTER1
 62
    2
 10
2349.9860815030797
 20
1588.4999999999998
 11
2334.9860815030797
 21
1588.4999999999998
  0
LINE
  8
_0-0_LAY
  6
CENTER1
 62
    2
 10
2342.4860815030797
 20
1596.4999999999998
 11
2342.4860815030797
 21
1580.4999999999998
  0
CIRCLE
  8
_0-0_LAY
  6
CONTINUOUS
 62
    2
 10
2342.4862032580295
 20
1588.4998988842508
 40
1.3
  0
LINE
  8
_0-0_LAY
  6
CONTINUOUS
 62
    2
 10
1988.6860815030807
 20
1576.4999999999998
 11
1990.6860815030807
 21
1574.4999999999998
  0
LINE
  8
_0-0_LAY
  6
CONTINUOUS
 62
    2
 10
1990.6860815030807
 20
1649.4999999999998
 11
1988.6860815030807
 21
1647.4999999999998
  0
LINE
  8
_0-0_LAY
  6
CONTINUOUS
 62
    2
 10
1988.6860815030807
 20
1647.4999999999998
 11
1988.6860815030807
 21
1576.4999999999998
  0
LINE
  8
_0-0_LAY
  6
CONTINUOUS
 62
    2
 10
2486.6860815030795
 20
1574.4999999999998
 11
1990.6860815030807
 21
1574.4999999999998
  0
LINE
  8
_0-0_LAY
  6
CONTINUOUS
 62
    2
 10
2488.6860815030805
 20
1576.4999999999998
 11
2486.6860815030795
 21
1574.4999999999998
  0
LINE
  8
_0-0_LAY
  6
CONTINUOUS
 62
    2
 10
2486.6860815030795
 20
1649.4999999999998
 11
1990.6860815030807
 21
1649.4999999999998
  0
LINE
  8
_0-0_LAY
  6
CONTINUOUS
 62
    2
 10
2486.6860815030795
 20
1649.4999999999998
 11
2488.6860815030805
 21
1647.4999999999998
  0
LINE
  8
_0-0_LAY
  6
CENTER1
 62
    2
 10
2142.4860815030806
 20
1180.4999999999989
 11
2142.4860815030806
 21
1164.8371948233528
  0
LINE
  8
_0-0_LAY
  6
CENTER1
 62
    2
 10
2134.9860815030806
 20
1172.4999999999989
 11
2149.9860815030806
 21
1172.4999999999989
  0
LINE
  8
_0-0_LAY
  6
CENTER1
 62
    2
 10
2069.3860815030798
 20
1227.4999999999989
 11
2069.3860815030798
 21
1211.4999999999989
  0
LINE
  8
_0-0_LAY
  6
CENTER1
 62
    2
 10
2061.8860815030807
 20
1219.4999999999989
 11
2076.8860815030798
 21
1219.4999999999989
  0
CIRCLE
  8
_0-0_LAY
  6
CONTINUOUS
 62
    2
 10
2069.3860767863248
 20
1219.5000091993188
 40
1.3
  0
CIRCLE
  8
_0-0_LAY
  6
CONTINUOUS
 62
    2
 10
2142.4860777814497
 20
1172.5000039322979
 40
1.3
  0
LINE
  8
_0-0_LAY
  6
CENTER1
 62
    2
 10
2215.5860815030805
 20
1227.4999999999989
 11
2215.5860815030805
 21
1211.4999999999989
  0
LINE
  8
_0-0_LAY
  6
CENTER1
 62
    2
 10
2208.0860815030796
 20
1219.4999999999989
 11
2223.0860815030805
 21
1219.4999999999989
  0
CIRCLE
  8
_0-0_LAY
  6
CONTINUOUS
 62
    2
 10
2215.5860767863246
 20
1219.5000091993188
 40
1.3
  0
LINE
  8
_0-0_LAY
  6
CENTER1
 62
    2
 10
2281.1860815030805
 20
1172.4999999999989
 11
2296.1860815030795
 21
1172.4999999999989
  0
LINE
  8
_0-0_LAY
  6
CENTER1
 62
    2
 10
2288.6860815030795
 20
1180.4999999999989
 11
2288.6860815030795
 21
1164.8371948233528
  0
CIRCLE
  8
_0-0_LAY
  6
CONTINUOUS
 62
    2
 10
2288.6860777814495
 20
1172.5000039322979
 40
1.3
  0
LINE
  8
_0-0_LAY
  6
CENTER1
 62
    2
 10
2361.7860815030808
 20
1227.4999999999989
 11
2361.7860815030808
 21
1211.4999999999989
  0
LINE
  8
_0-0_LAY
  6
CENTER1
 62
    2
 10
2354.2860815030808
 20
1219.4999999999989
 11
2369.2860815030808
 21
1219.4999999999989
  0
CIRCLE
  8
_0-0_LAY
  6
CONTINUOUS
 62
    2
 10
2361.7860767863258
 20
1219.5000091993188
 40
1.3
  0
LINE
  8
_0-0_LAY
  6
CENTER1
 62
    2
 10
2427.3860815030798
 20
1172.4999999999989
 11
2442.3860815030807
 21
1172.4999999999989
  0
LINE
  8
_0-0_LAY
  6
CENTER1
 62
    2
 10
2434.8860815030798
 20
1180.4999999999989
 11
2434.8860815030798
 21
1164.8371948233528
  0
CIRCLE
  8
_0-0_LAY
  6
CONTINUOUS
 62
    2
 10
2434.8860777814498
 20
1172.5000039322979
 40
1.3
  0
LINE
  8
_0-0_LAY
  6
CENTER1
 62
    2
 10
2507.9860815030806
 20
1227.4999999999989
 11
2507.9860815030806
 21
1211.4999999999989
  0
LINE
  8
_0-0_LAY
  6
CENTER1
 62
    2
 10
2500.4860815030797
 20
1219.4999999999989
 11
2515.4860815030797
 21
1219.4999999999989
  0
CIRCLE
  8
_0-0_LAY
  6
CONTINUOUS
 62
    2
 10
2507.9860767863256
 20
1219.5000091993188
 40
1.3
  0
LINE
  8
_0-0_LAY
  6
CONTINUOUS
 62
    2
 10
1991.6860815030795
 20
1233.4999999999989
 11
1988.6860815030807
 21
1230.4999999999989
  0
LINE
  8
_0-0_LAY
  6
CONTINUOUS
 62
    2
 10
2585.6860815030805
 20
1233.4999999999989
 11
2588.6860815030805
 21
1230.4999999999989
  0
LINE
  8
_0-0_LAY
  6
CONTINUOUS
 62
    2
 10
2585.6860815030805
 20
1233.4999999999989
 11
1991.6860815030795
 21
1233.4999999999989
  0
LINE
  8
_0-0_LAY
  6
CONTINUOUS
 62
    2
 10
1988.6860815030807
 20
1161.4999999999989
 11
1991.6860815030795
 21
1158.4999999999989
  0
LINE
  8
_0-0_LAY
  6
CONTINUOUS
 62
    2
 10
2585.6860815030805
 20
1158.4999999999989
 11
1991.6860815030795
 21
1158.4999999999989
  0
LINE
  8
_0-0_LAY
  6
CONTINUOUS
 62
    2
 10
2588.6860815030805
 20
1161.4999999999989
 11
2585.6860815030805
 21
1158.4999999999989
  0
LINE
  8
_0-0_LAY
  6
CONTINUOUS
 62
    2
 10
1988.6860815030807
 20
1161.4999999999989
 11
1988.6860815030807
 21
1230.4999999999989
  0
LINE
  8
_0-0_LAY
  6
CONTINUOUS
 62
    2
 10
2588.6860815030805
 20
1161.4999999999989
 11
2588.6860815030805
 21
1230.4999999999989
  0
ARC
  8
_0-0_LAY
  6
CONTINUOUS
 62
    2
 10
2011.7860815030806
 20
1210.4999999999989
 40
8
 50
90
 51
180
  0
ARC
  8
_0-0_LAY
  6
CONTINUOUS
 62
    2
 10
2157.9860815030806
 20
1210.4999999999989
 40
8
 50
90
 51
180
  0
ARC
  8
_0-0_LAY
  6
CONTINUOUS
 62
    2
 10
2273.1860815030795
 20
1210.4999999999989
 40
8
 50
0
 51
90
  0
ARC
  8
_0-0_LAY
  6
CONTINUOUS
 62
    2
 10
2304.1860815030805
 20
1210.4999999999989
 40
8
 50
90
 51
180
  0
ARC
  8
_0-0_LAY
  6
CONTINUOUS
 62
    2
 10
2419.3860815030807
 20
1210.4999999999989
 40
8
 50
0
 51
90
  0
ARC
  8
_0-0_LAY
  6
CONTINUOUS
 62
    2
 10
2450.3860815030816
 20
1210.4999999999989
 40
8
 50
90
 51
180
  0
ARC
  8
_0-0_LAY
  6
CONTINUOUS
 62
    2
 10
2565.5860815030805
 20
1210.4999999999989
 40
8
 50
0
 51
90
  0
LINE
  8
_0-0_LAY
  6
CONTINUOUS
 62
    2
 10
2523.4860815030806
 20
1218.4999999999989
 11
2565.5860815030805
 21
1218.4999999999989
  0
LINE
  8
_0-0_LAY
  6
CONTINUOUS
 62
    2
 10
2523.4860815030806
 20
1218.4999999999989
 11
2515.4860815030806
 21
1210.4999999999989
  0
LINE
  8
_0-0_LAY
  6
CONTINUOUS
 62
    2
 10
2492.4860815030806
 20
1218.4999999999989
 11
2450.3860815030816
 21
1218.4999999999989
  0
LINE
  8
_0-0_LAY
  6
CONTINUOUS
 62
    2
 10
2500.4860815030806
 20
1210.4999999999989
 11
2492.4860815030806
 21
1218.4999999999989
  0
LINE
  8
_0-0_LAY
  6
CONTINUOUS
 62
    2
 10
2377.2860815030808
 20
1218.4999999999989
 11
2419.3860815030807
 21
1218.4999999999989
  0
LINE
  8
_0-0_LAY
  6
CONTINUOUS
 62
    2
 10
2377.2860815030808
 20
1218.4999999999989
 11
2369.2860815030808
 21
1210.4999999999989
  0
LINE
  8
_0-0_LAY
  6
CONTINUOUS
 62
    2
 10
2346.2860815030808
 20
1218.4999999999989
 11
2304.1860815030805
 21
1218.4999999999989
  0
LINE
  8
_0-0_LAY
  6
CONTINUOUS
 62
    2
 10
2346.2860815030808
 20
1218.4999999999989
 11
2354.2860815030808
 21
1210.4999999999989
  0
LINE
  8
_0-0_LAY
  6
CONTINUOUS
 62
    2
 10
2231.0860815030805
 20
1218.4999999999989
 11
2273.1860815030795
 21
1218.4999999999989
  0
LINE
  8
_0-0_LAY
  6
CONTINUOUS
 62
    2
 10
2231.0860815030805
 20
1218.4999999999989
 11
2223.0860815030805
 21
1210.4999999999989
  0
LINE
  8
_0-0_LAY
  6
CONTINUOUS
 62
    2
 10
2200.0860815030796
 20
1218.4999999999989
 11
2157.9860815030806
 21
1218.4999999999989
  0
LINE
  8
_0-0_LAY
  6
CONTINUOUS
 62
    2
 10
2200.0860815030796
 20
1218.4999999999989
 11
2208.0860815030796
 21
1210.4999999999989
  0
LINE
  8
_0-0_LAY
  6
CONTINUOUS
 62
    2
 10
2084.8860815030798
 20
1218.4999999999989
 11
2076.8860815030798
 21
1210.4999999999989
  0
LINE
  8
_0-0_LAY
  6
CONTINUOUS
 62
    2
 10
2053.8860815030798
 20
1218.4999999999989
 11
2011.7860815030806
 21
1218.4999999999989
  0
LINE
  8
_0-0_LAY
  6
CONTINUOUS
 62
    2
 10
2053.8860815030798
 20
1218.4999999999989
 11
2061.8860815030807
 21
1210.4999999999989
  0
LINE
  8
_0-0_LAY
  6
CONTINUOUS
 62
    2
 10
2086.1992381651844
 20
1218.4999999999989
 11
2126.9860815030806
 21
1218.4999999999989
  0
LINE
  8
_0-0_LAY
  6
CENTER1
 62
    2
 10
2084.8860815030798
 20
1218.4999999999989
 11
2126.9860815030806
 21
1218.4999999999989
  0
ARC
  8
_0-0_LAY
  6
CONTINUOUS
 62
    2
 10
2011.7860815030806
 20
1181.4999999999989
 40
8
 50
180
 51
270
  0
LINE
  8
_0-0_LAY
  6
CONTINUOUS
 62
    2
 10
2053.8860815030798
 20
1173.4999999999989
 11
2011.7860815030806
 21
1173.4999999999989
  0
ARC
  8
_0-0_LAY
  6
CONTINUOUS
 62
    2
 10
2053.8860815030798
 20
1181.4999999999989
 40
8
 50
270
 51
0
  0
ARC
  8
_0-0_LAY
  6
CONTINUOUS
 62
    2
 10
2200.0860815030796
 20
1181.4999999999989
 40
8
 50
270
 51
0
  0
ARC
  8
_0-0_LAY
  6
CONTINUOUS
 62
    2
 10
2231.0860815030805
 20
1181.4999999999989
 40
8
 50
180
 51
270
  0
ARC
  8
_0-0_LAY
  6
CONTINUOUS
 62
    2
 10
2346.2860815030808
 20
1181.4999999999989
 40
8
 50
270
 51
0
  0
ARC
  8
_0-0_LAY
  6
CONTINUOUS
 62
    2
 10
2377.2860815030808
 20
1181.4999999999989
 40
8
 50
180
 51
270
  0
ARC
  8
_0-0_LAY
  6
CONTINUOUS
 62
    2
 10
2492.4860815030806
 20
1181.4999999999989
 40
8
 50
270
 51
0
  0
ARC
  8
_0-0_LAY
  6
CONTINUOUS
 62
    2
 10
2523.4860815030806
 20
1181.4999999999989
 40
8
 50
180
 51
270
  0
LINE
  8
_0-0_LAY
  6
CONTINUOUS
 62
    2
 10
2565.5860815030805
 20
1173.4999999999989
 11
2523.4860815030806
 21
1173.4999999999989
  0
ARC
  8
_0-0_LAY
  6
CONTINUOUS
 62
    2
 10
2565.5860815030805
 20
1181.4999999999989
 40
8
 50
270
 51
0
  0
LINE
  8
_0-0_LAY
  6
CONTINUOUS
 62
    2
 10
2450.3860815030816
 20
1173.4999999999989
 11
2492.4860815030806
 21
1173.4999999999989
  0
LINE
  8
_0-0_LAY
  6
CONTINUOUS
 62
    2
 10
2442.3860815030807
 20
1181.4999999999989
 11
2450.3860815030816
 21
1173.4999999999989
  0
LINE
  8
_0-0_LAY
  6
CONTINUOUS
 62
    2
 10
2419.3860815030807
 20
1173.4999999999989
 11
2377.2860815030808
 21
1173.4999999999989
  0
LINE
  8
_0-0_LAY
  6
CONTINUOUS
 62
    2
 10
2427.3860815030798
 20
1181.4999999999989
 11
2419.3860815030807
 21
1173.4999999999989
  0
LINE
  8
_0-0_LAY
  6
CONTINUOUS
 62
    2
 10
2304.1860815030805
 20
1173.4999999999989
 11
2346.2860815030808
 21
1173.4999999999989
  0
LINE
  8
_0-0_LAY
  6
CONTINUOUS
 62
    2
 10
2296.1860815030795
 20
1181.4999999999989
 11
2304.1860815030805
 21
1173.4999999999989
  0
LINE
  8
_0-0_LAY
  6
CONTINUOUS
 62
    2
 10
2273.1860815030795
 20
1173.4999999999989
 11
2231.0860815030805
 21
1173.4999999999989
  0
LINE
  8
_0-0_LAY
  6
CONTINUOUS
 62
    2
 10
2281.1860815030805
 20
1181.4999999999989
 11
2273.1860815030795
 21
1173.4999999999989
  0
LINE
  8
_0-0_LAY
  6
CONTINUOUS
 62
    2
 10
2126.9860815030806
 20
1173.4999999999989
 11
2084.8860815030798
 21
1173.4999999999989
  0
LINE
  8
_0-0_LAY
  6
CONTINUOUS
 62
    2
 10
2134.9860815030806
 20
1181.4999999999989
 11
2126.9860815030806
 21
1173.4999999999989
  0
LINE
  8
_0-0_LAY
  6
CONTINUOUS
 62
    2
 10
2149.9860815030806
 20
1181.4999999999989
 11
2157.9860815030806
 21
1173.4999999999989
  0
LINE
  8
_0-0_LAY
  6
CONTINUOUS
 62
    2
 10
2157.9860815030806
 20
1173.4999999999989
 11
2200.0860815030796
 21
1173.4999999999989
  0
LINE
  8
_0-0_LAY
  6
CONTINUOUS
 62
    2
 10
2003.7860815030806
 20
1181.4999999999989
 11
2003.7860815030806
 21
1210.4999999999989
  0
LINE
  8
_0-0_LAY
  6
CONTINUOUS
 62
    2
 10
2061.8860815030807
 20
1210.4999999999989
 11
2061.8860815030807
 21
1181.4999999999989
  0
ARC
  8
_0-0_LAY
  6
CONTINUOUS
 62
    2
 10
2084.8860815030798
 20
1181.4999999999989
 40
8
 50
180
 51
270
  0
LINE
  8
_0-0_LAY
  6
CONTINUOUS
 62
    2
 10
2076.8860815030798
 20
1210.4999999999989
 11
2076.8860815030798
 21
1181.4999999999989
  0
ARC
  8
_0-0_LAY
  6
CONTINUOUS
 62
    2
 10
2126.9860815030806
 20
1210.4999999999989
 40
8
 50
0
 51
90
  0
LINE
  8
_0-0_LAY
  6
CONTINUOUS
 62
    2
 10
2134.9860815030806
 20
1181.4999999999989
 11
2134.9860815030806
 21
1210.4999999999989
  0
LINE
  8
_0-0_LAY
  6
CONTINUOUS
 62
    2
 10
2149.9860815030806
 20
1181.4999999999989
 11
2149.9860815030806
 21
1210.4999999999989
  0
LINE
  8
_0-0_LAY
  6
CONTINUOUS
 62
    2
 10
2208.0860815030796
 20
1210.4999999999989
 11
2208.0860815030796
 21
1181.4999999999989
  0
LINE
  8
_0-0_LAY
  6
CONTINUOUS
 62
    2
 10
2223.0860815030805
 20
1210.4999999999989
 11
2223.0860815030805
 21
1181.4999999999989
  0
LINE
  8
_0-0_LAY
  6
CONTINUOUS
 62
    2
 10
2281.1860815030805
 20
1181.4999999999989
 11
2281.1860815030805
 21
1210.4999999999989
  0
LINE
  8
_0-0_LAY
  6
CONTINUOUS
 62
    2
 10
2296.1860815030795
 20
1181.4999999999989
 11
2296.1860815030795
 21
1210.4999999999989
  0
LINE
  8
_0-0_LAY
  6
CONTINUOUS
 62
    2
 10
2354.2860815030808
 20
1210.4999999999989
 11
2354.2860815030808
 21
1181.4999999999989
  0
LINE
  8
_0-0_LAY
  6
CONTINUOUS
 62
    2
 10
2369.2860815030808
 20
1210.4999999999989
 11
2369.2860815030808
 21
1181.4999999999989
  0
LINE
  8
_0-0_LAY
  6
CONTINUOUS
 62
    2
 10
2427.3860815030798
 20
1181.4999999999989
 11
2427.3860815030798
 21
1210.4999999999989
  0
LINE
  8
_0-0_LAY
  6
CONTINUOUS
 62
    2
 10
2442.3860815030807
 20
1181.4999999999989
 11
2442.3860815030807
 21
1210.4999999999989
  0
LINE
  8
_0-0_LAY
  6
CONTINUOUS
 62
    2
 10
2500.4860815030806
 20
1210.4999999999989
 11
2500.4860815030806
 21
1181.4999999999989
  0
LINE
  8
_0-0_LAY
  6
CONTINUOUS
 62
    2
 10
2515.4860815030806
 20
1210.4999999999989
 11
2515.4860815030806
 21
1181.4999999999989
  0
LINE
  8
_0-0_LAY
  6
CONTINUOUS
 62
    2
 10
2573.5860815030796
 20
1181.4999999999989
 11
2573.5860815030796
 21
1210.4999999999989
  0
LINE
  8
_0-0_LAY
  6
CENTER1
 62
    2
 10
383.92631610445596
 20
2010.9999934016039
 11
397.92631610445551
 21
2010.9999934016039
  0
LINE
  8
_0-0_LAY
  6
CENTER1
 62
    2
 10
390.92631610445551
 20
2017.9999934016039
 11
390.92631610445551
 21
2003.9999934016039
  0
LINE
  8
_0-0_LAY
  6
CENTER1
 62
    2
 10
527.92631610445551
 20
2010.9999999999998
 11
541.92631610445551
 21
2010.9999999999998
  0
LINE
  8
_0-0_LAY
  6
CENTER1
 62
    2
 10
534.92631610445551
 20
2017.9999999999998
 11
534.92631610445551
 21
2003.9999999999998
  0
LINE
  8
_0-0_LAY
  6
CENTER1
 62
    2
 10
455.92631610445551
 20
2044.9999999999998
 11
469.92631610445551
 21
2044.9999999999998
  0
LINE
  8
_0-0_LAY
  6
CENTER1
 62
    2
 10
462.92631610445551
 20
2052
 11
462.92631610445551
 21
2037.9999999999998
  0
LINE
  8
_0-0_LAY
  6
CENTER1
 62
    2
 10
318.92631610445596
 20
2052
 11
318.92631610445596
 21
2037.9999999999998
  0
LINE
  8
_0-0_LAY
  6
CENTER1
 62
    2
 10
311.92631610445596
 20
2044.9999999999998
 11
325.92631610445551
 21
2044.9999999999998
  0
LINE
  8
_0-0_LAY
  6
CENTER1
 62
    2
 10
239.92631610445551
 20
2010.9999999999998
 11
253.92631610445596
 21
2010.9999999999998
  0
LINE
  8
_0-0_LAY
  6
CENTER1
 62
    2
 10
246.92631610445596
 20
2017.9999999999998
 11
246.92631610445596
 21
2003.9999999999998
  0
CIRCLE
  8
_0-0_LAY
  6
CONTINUOUS
 62
    2
 10
246.92631610445596
 20
2010.9999999999998
 40
1.3
  0
CIRCLE
  8
_0-0_LAY
  6
CONTINUOUS
 62
    2
 10
318.92631610445596
 20
2044.9999999999998
 40
1.3
  0
CIRCLE
  8
_0-0_LAY
  6
CONTINUOUS
 62
    2
 10
390.92631610445551
 20
2010.9999934016039
 40
1.3
  0
CIRCLE
  8
_0-0_LAY
  6
CONTINUOUS
 62
    2
 10
462.92631610445551
 20
2044.9999999999998
 40
1.3
  0
CIRCLE
  8
_0-0_LAY
  6
CONTINUOUS
 62
    2
 10
534.92631610445551
 20
2010.9999999999998
 40
1.3
  0
LINE
  8
_0-0_LAY
  6
CONTINUOUS
 62
    2
 10
303.92631610445596
 20
2044.9999999999998
 11
311.92631610445596
 21
2036.9999999999998
  0
LINE
  8
_0-0_LAY
  6
CONTINUOUS
 62
    2
 10
325.92631610445551
 20
2036.9999999999998
 11
333.92631610445596
 21
2044.9999999999998
  0
LINE
  8
_0-0_LAY
  6
CONTINUOUS
 62
    2
 10
383.92631610445596
 20
2018.9999999999998
 11
375.92631610445551
 21
2010.9999999999998
  0
LINE
  8
_0-0_LAY
  6
CONTINUOUS
 62
    2
 10
397.92631610445551
 20
2018.9999999999998
 11
405.92631610445551
 21
2010.9999999999998
  0
LINE
  8
_0-0_LAY
  6
CONTINUOUS
 62
    2
 10
455.92631610445551
 20
2036.9999999999998
 11
447.92631610445551
 21
2044.9999999999998
  0
LINE
  8
_0-0_LAY
  6
CONTINUOUS
 62
    2
 10
477.92631610445551
 20
2044.9999999999998
 11
469.92631610445551
 21
2036.9999999999998
  0
LINE
  8
_0-0_LAY
  6
CONTINUOUS
 62
    2
 10
527.92631610445551
 20
2018.9999999999998
 11
519.92631610445551
 21
2010.9999999999998
  0
LINE
  8
_0-0_LAY
  6
CONTINUOUS
 62
    2
 10
541.92631610445551
 20
2018.9999999999998
 11
549.92631610445551
 21
2010.9999999999998
  0
LINE
  8
_0-0_LAY
  6
CONTINUOUS
 62
    2
 10
253.92631610445596
 20
2018.9999999999998
 11
261.92631610445596
 21
2010.9999999999998
  0
LINE
  8
_0-0_LAY
  6
CONTINUOUS
 62
    2
 10
239.92631610445551
 20
2018.9999999999998
 11
231.92631610445596
 21
2010.9999999999998
  0
ARC
  8
_0-0_LAY
  6
CONTINUOUS
 62
    2
 10
189.92631610445551
 20
2036.9999999999998
 40
8
 50
90
 51
180
  0
LINE
  8
_0-0_LAY
  6
CONTINUOUS
 62
    2
 10
231.92631610445596
 20
2044.9999999999998
 11
189.92631610445551
 21
2044.9999999999998
  0
LINE
  8
_0-0_LAY
  6
CONTINUOUS
 62
    2
 10
239.92631610445551
 20
2036.9999999999998
 11
239.92631610445551
 21
2018.9999999999998
  0
ARC
  8
_0-0_LAY
  6
CONTINUOUS
 62
    2
 10
231.92631610445596
 20
2036.9999999999998
 40
8
 50
0
 51
90
  0
LINE
  8
_0-0_LAY
  6
CONTINUOUS
 62
    2
 10
181.92631610445596
 20
2018.9999999999998
 11
181.92631610445596
 21
2036.9999999999998
  0
LINE
  8
_0-0_LAY
  6
CONTINUOUS
 62
    2
 10
189.92631610445551
 20
2010.9999999999998
 11
231.92631610445596
 21
2010.9999999999998
  0
ARC
  8
_0-0_LAY
  6
CONTINUOUS
 62
    2
 10
189.92631610445551
 20
2018.9999999999998
 40
8
 50
180
 51
270
  0
LINE
  8
_0-0_LAY
  6
CONTINUOUS
 62
    2
 10
253.92631610445596
 20
2036.9999999999998
 11
253.92631610445596
 21
2018.9999999999998
  0
LINE
  8
_0-0_LAY
  6
CONTINUOUS
 62
    2
 10
261.92631610445596
 20
2044.9999999999998
 11
303.92631610445596
 21
2044.9999999999998
  0
ARC
  8
_0-0_LAY
  6
CONTINUOUS
 62
    2
 10
261.92631610445596
 20
2036.9999999999998
 40
8
 50
90
 51
180
  0
LINE
  8
_0-0_LAY
  6
CONTINUOUS
 62
    2
 10
311.92631610445596
 20
2018.9999999999998
 11
311.92631610445596
 21
2036.9999999999998
  0
LINE
  8
_0-0_LAY
  6
CONTINUOUS
 62
    2
 10
303.92631610445596
 20
2010.9999999999998
 11
261.92631610445596
 21
2010.9999999999998
  0
ARC
  8
_0-0_LAY
  6
CONTINUOUS
 62
    2
 10
303.92631610445596
 20
2018.9999999999998
 40
8
 50
270
 51
0
  0
LINE
  8
_0-0_LAY
  6
CONTINUOUS
 62
    2
 10
325.92631610445551
 20
2018.9999999999998
 11
325.92631610445551
 21
2036.9999999999998
  0
LINE
  8
_0-0_LAY
  6
CONTINUOUS
 62
    2
 10
333.92631610445596
 20
2010.9999999999998
 11
375.92631610445551
 21
2010.9999999999998
  0
ARC
  8
_0-0_LAY
  6
CONTINUOUS
 62
    2
 10
333.92631610445596
 20
2018.9999999999998
 40
8
 50
180
 51
270
  0
LINE
  8
_0-0_LAY
  6
CONTINUOUS
 62
    2
 10
375.92631610445551
 20
2044.9999999999998
 11
333.92631610445596
 21
2044.9999999999998
  0
LINE
  8
_0-0_LAY
  6
CONTINUOUS
 62
    2
 10
383.92631610445596
 20
2036.9999999999998
 11
383.92631610445596
 21
2018.9999999999998
  0
ARC
  8
_0-0_LAY
  6
CONTINUOUS
 62
    2
 10
375.92631610445551
 20
2036.9999999999998
 40
8
 50
0
 51
90
  0
LINE
  8
_0-0_LAY
  6
CONTINUOUS
 62
    2
 10
397.92631610445551
 20
2036.9999999999998
 11
397.92631610445551
 21
2018.9999999999998
  0
LINE
  8
_0-0_LAY
  6
CONTINUOUS
 62
    2
 10
405.92631610445551
 20
2044.9999999999998
 11
447.92631610445551
 21
2044.9999999999998
  0
ARC
  8
_0-0_LAY
  6
CONTINUOUS
 62
    2
 10
405.92631610445551
 20
2036.9999999999998
 40
8
 50
90
 51
180
  0
LINE
  8
_0-0_LAY
  6
CONTINUOUS
 62
    2
 10
455.92631610445551
 20
2018.9999999999998
 11
455.92631610445551
 21
2036.9999999999998
  0
LINE
  8
_0-0_LAY
  6
CONTINUOUS
 62
    2
 10
447.92631610445551
 20
2010.9999999999998
 11
405.92631610445551
 21
2010.9999999999998
  0
ARC
  8
_0-0_LAY
  6
CONTINUOUS
 62
    2
 10
447.92631610445551
 20
2018.9999999999998
 40
8
 50
270
 51
0
  0
LINE
  8
_0-0_LAY
  6
CONTINUOUS
 62
    2
 10
469.92631610445551
 20
2018.9999999999998
 11
469.92631610445551
 21
2036.9999999999998
  0
LINE
  8
_0-0_LAY
  6
CONTINUOUS
 62
    2
 10
477.92631610445551
 20
2010.9999999999998
 11
519.92631610445551
 21
2010.9999999999998
  0
ARC
  8
_0-0_LAY
  6
CONTINUOUS
 62
    2
 10
477.92631610445551
 20
2018.9999999999998
 40
8
 50
180
 51
270
  0
LINE
  8
_0-0_LAY
  6
CONTINUOUS
 62
    2
 10
519.92631610445551
 20
2044.9999999999998
 11
477.92631610445551
 21
2044.9999999999998
  0
LINE
  8
_0-0_LAY
  6
CONTINUOUS
 62
    2
 10
527.92631610445551
 20
2036.9999999999998
 11
527.92631610445551
 21
2018.9999999999998
  0
ARC
  8
_0-0_LAY
  6
CONTINUOUS
 62
    2
 10
519.92631610445551
 20
2036.9999999999998
 40
8
 50
0
 51
90
  0
LINE
  8
_0-0_LAY
  6
CONTINUOUS
 62
    2
 10
541.92631610445551
 20
2036.9999999999998
 11
541.92631610445551
 21
2018.9999999999998
  0
ARC
  8
_0-0_LAY
  6
CONTINUOUS
 62
    2
 10
549.92631610445551
 20
2036.9999999999998
 40
8
 50
90
 51
180
  0
LINE
  8
_0-0_LAY
  6
CONTINUOUS
 62
    2
 10
591.92631610445551
 20
2044.9999999999998
 11
549.92631610445551
 21
2044.9999999999998
  0
ARC
  8
_0-0_LAY
  6
CONTINUOUS
 62
    2
 10
591.92631610445551
 20
2036.9999999999998
 40
8
 50
0
 51
90
  0
LINE
  8
_0-0_LAY
  6
CONTINUOUS
 62
    2
 10
599.92631610445551
 20
2018.9999999999998
 11
599.92631610445551
 21
2036.9999999999998
  0
LINE
  8
_0-0_LAY
  6
CONTINUOUS
 62
    2
 10
591.92631610445551
 20
2010.9999999999998
 11
549.92631610445551
 21
2010.9999999999998
  0
ARC
  8
_0-0_LAY
  6
CONTINUOUS
 62
    2
 10
591.92631610445551
 20
2018.9999999999998
 40
8
 50
270
 51
0
  0
LINE
  8
_0-0_LAY
  6
CONTINUOUS
 62
    2
 10
613.92631610445596
 20
2058
 11
615.92631610445551
 21
2056
  0
LINE
  8
_0-0_LAY
  6
CONTINUOUS
 62
    2
 10
167.92631610445551
 20
2058
 11
613.92631610445596
 21
2058
  0
LINE
  8
_0-0_LAY
  6
CONTINUOUS
 62
    2
 10
167.92631610445551
 20
2058
 11
165.92631610445551
 21
2056
  0
LINE
  8
_0-0_LAY
  6
CONTINUOUS
 62
    2
 10
165.92631610445551
 20
1999.9999999999998
 11
165.92631610445551
 21
2056
  0
LINE
  8
_0-0_LAY
  6
CONTINUOUS
 62
    2
 10
165.92631610445551
 20
1999.9999999999998
 11
167.92631610445551
 21
1997.9999999999998
  0
LINE
  8
_0-0_LAY
  6
CONTINUOUS
 62
    2
 10
615.92631610445551
 20
1999.9999999999998
 11
615.92631610445551
 21
2056
  0
LINE
  8
_0-0_LAY
  6
CONTINUOUS
 62
    2
 10
613.92631610445596
 20
1997.9999999999998
 11
167.92631610445551
 21
1997.9999999999998
  0
LINE
  8
_0-0_LAY
  6
CONTINUOUS
 62
    2
 10
615.92631610445551
 20
1999.9999999999998
 11
613.92631610445596
 21
1997.9999999999998
  0
ARC
  8
_0-0_LAY
  6
CONTINUOUS
 62
    2
 10
187.67631610445596
 20
1620.9999999999998
 40
8
 50
90
 51
180
  0
LINE
  8
_0-0_LAY
  6
CONTINUOUS
 62
    2
 10
179.67631610445551
 20
1602.9999999999998
 11
179.67631610445551
 21
1620.9999999999998
  0
ARC
  8
_0-0_LAY
  6
CONTINUOUS
 62
    2
 10
187.67631610445596
 20
1602.9999999999998
 40
8
 50
180
 51
270
  0
LINE
  8
_0-0_LAY
  6
CONTINUOUS
 62
    2
 10
227.17631610445551
 20
1629.0000000000018
 11
187.67631610445596
 21
1629.0000000000018
  0
ARC
  8
_0-0_LAY
  6
CONTINUOUS
 62
    2
 10
227.17631610445551
 20
1620.9999999999998
 40
8
 50
0
 51
90
  0
ARC
  8
_0-0_LAY
  6
CONTINUOUS
 62
    2
 10
257.17631610445551
 20
1620.9999999999998
 40
8
 50
90
 51
180
  0
ARC
  8
_0-0_LAY
  6
CONTINUOUS
 62
    2
 10
296.67631610445551
 20
1602.9999999999998
 40
8
 50
270
 51
0
  0
ARC
  8
_0-0_LAY
  6
CONTINUOUS
 62
    2
 10
326.67631610445551
 20
1602.9999999999998
 40
8
 50
180
 51
270
  0
ARC
  8
_0-0_LAY
  6
CONTINUOUS
 62
    2
 10
366.17631610445778
 20
1620.9999999999998
 40
8
 50
0
 51
90
  0
ARC
  8
_0-0_LAY
  6
CONTINUOUS
 62
    2
 10
396.17631610445778
 20
1620.9999999999998
 40
8
 50
90
 51
180
  0
ARC
  8
_0-0_LAY
  6
CONTINUOUS
 62
    2
 10
435.67631610445369
 20
1602.9999999999998
 40
8
 50
270
 51
0
  0
ARC
  8
_0-0_LAY
  6
CONTINUOUS
 62
    2
 10
465.67631610445369
 20
1602.9999999999998
 40
8
 50
180
 51
270
  0
ARC
  8
_0-0_LAY
  6
CONTINUOUS
 62
    2
 10
505.17631610445596
 20
1620.9999999999998
 40
8
 50
0
 51
90
  0
ARC
  8
_0-0_LAY
  6
CONTINUOUS
 62
    2
 10
535.17631610445596
 20
1620.9999999999998
 40
8
 50
90
 51
180
  0
ARC
  8
_0-0_LAY
  6
CONTINUOUS
 62
    2
 10
574.67631610445551
 20
1602.9999999999998
 40
8
 50
270
 51
0
  0
ARC
  8
_0-0_LAY
  6
CONTINUOUS
 62
    2
 10
604.67631610445551
 20
1602.9999999999998
 40
8
 50
180
 51
270
  0
LINE
  8
_0-0_LAY
  6
CONTINUOUS
 62
    2
 10
644.17631610445551
 20
1595.0000000000018
 11
604.67631610445551
 21
1595.0000000000018
  0
ARC
  8
_0-0_LAY
  6
CONTINUOUS
 62
    2
 10
644.17631610445551
 20
1602.9999999999998
 40
8
 50
270
 51
0
  0
LINE
  8
_0-0_LAY
  6
CONTINUOUS
 62
    2
 10
652.17631610445551
 20
1620.9999999999998
 11
652.17631610445551
 21
1602.9999999999998
  0
ARC
  8
_0-0_LAY
  6
CONTINUOUS
 62
    2
 10
644.17631610445551
 20
1620.9999999999998
 40
8
 50
0
 51
90.000000000000057
  0
LINE
  8
_0-0_LAY
  6
CONTINUOUS
 62
    2
 10
604.67631610445551
 20
1629.0000000000018
 11
644.17631610445551
 21
1629.0000000000018
  0
LINE
  8
_0-0_LAY
  6
CONTINUOUS
 62
    2
 10
596.67631610445551
 20
1620.9999999999998
 11
596.67631610445551
 21
1602.9999999999998
  0
LINE
  8
_0-0_LAY
  6
CONTINUOUS
 62
    2
 10
604.67631610445551
 20
1629.0000000000018
 11
596.67631610445551
 21
1620.9999999999998
  0
LINE
  8
_0-0_LAY
  6
CONTINUOUS
 62
    2
 10
574.67631610445551
 20
1629.0000000000018
 11
535.17631610445596
 21
1629.0000000000018
  0
LINE
  8
_0-0_LAY
  6
CONTINUOUS
 62
    2
 10
582.67631610445596
 20
1620.9999999999998
 11
582.67631610445596
 21
1602.9999999999998
  0
LINE
  8
_0-0_LAY
  6
CONTINUOUS
 62
    2
 10
574.67631610445551
 20
1629.0000000000018
 11
582.67631610445596
 21
1620.9999999999998
  0
LINE
  8
_0-0_LAY
  6
CONTINUOUS
 62
    2
 10
527.17631610445551
 20
1602.9999999999998
 11
527.17631610445551
 21
1620.9999999999998
  0
LINE
  8
_0-0_LAY
  6
CONTINUOUS
 62
    2
 10
535.17631610445596
 20
1595.0000000000018
 11
574.67631610445551
 21
1595.0000000000018
  0
LINE
  8
_0-0_LAY
  6
CONTINUOUS
 62
    2
 10
527.17631610445551
 20
1602.9999999999998
 11
535.17631610445596
 21
1595.0000000000018
  0
LINE
  8
_0-0_LAY
  6
CONTINUOUS
 62
    2
 10
513.17631610445369
 20
1602.9999999999998
 11
513.17631610445369
 21
1620.9999999999998
  0
LINE
  8
_0-0_LAY
  6
CONTINUOUS
 62
    2
 10
505.17631610445596
 20
1595.0000000000018
 11
465.67631610445369
 21
1595.0000000000018
  0
LINE
  8
_0-0_LAY
  6
CONTINUOUS
 62
    2
 10
513.17631610445369
 20
1602.9999999999998
 11
505.17631610445596
 21
1595.0000000000018
  0
LINE
  8
_0-0_LAY
  6
CONTINUOUS
 62
    2
 10
457.67631610445596
 20
1620.9999999999998
 11
457.67631610445596
 21
1602.9999999999998
  0
LINE
  8
_0-0_LAY
  6
CONTINUOUS
 62
    2
 10
465.67631610445369
 20
1629.0000000000018
 11
505.17631610445596
 21
1629.0000000000018
  0
LINE
  8
_0-0_LAY
  6
CONTINUOUS
 62
    2
 10
457.67631610445596
 20
1620.9999999999998
 11
465.67631610445369
 21
1629.0000000000018
  0
LINE
  8
_0-0_LAY
  6
CONTINUOUS
 62
    2
 10
435.67631610445369
 20
1629.0000000000018
 11
396.17631610445778
 21
1629.0000000000018
  0
LINE
  8
_0-0_LAY
  6
CONTINUOUS
 62
    2
 10
443.67631610445778
 20
1620.9999999999998
 11
443.67631610445778
 21
1602.9999999999998
  0
LINE
  8
_0-0_LAY
  6
CONTINUOUS
 62
    2
 10
435.67631610445369
 20
1629.0000000000018
 11
443.67631610445778
 21
1620.9999999999998
  0
LINE
  8
_0-0_LAY
  6
CONTINUOUS
 62
    2
 10
388.17631610445369
 20
1602.9999999999998
 11
388.17631610445369
 21
1620.9999999999998
  0
LINE
  8
_0-0_LAY
  6
CONTINUOUS
 62
    2
 10
396.17631610445778
 20
1595.0000000000018
 11
435.67631610445369
 21
1595.0000000000018
  0
LINE
  8
_0-0_LAY
  6
CONTINUOUS
 62
    2
 10
388.17631610445369
 20
1602.9999999999998
 11
396.17631610445778
 21
1595.0000000000018
  0
LINE
  8
_0-0_LAY
  6
CONTINUOUS
 62
    2
 10
374.17631610445551
 20
1602.9999999999998
 11
374.17631610445551
 21
1620.9999999999998
  0
LINE
  8
_0-0_LAY
  6
CONTINUOUS
 62
    2
 10
366.17631610445778
 20
1595.0000000000018
 11
326.67631610445551
 21
1595.0000000000018
  0
LINE
  8
_0-0_LAY
  6
CONTINUOUS
 62
    2
 10
374.17631610445551
 20
1602.9999999999998
 11
366.17631610445778
 21
1595.0000000000018
  0
LINE
  8
_0-0_LAY
  6
CONTINUOUS
 62
    2
 10
326.67631610445551
 20
1629.0000000000018
 11
366.17631610445778
 21
1629.0000000000018
  0
LINE
  8
_0-0_LAY
  6
CONTINUOUS
 62
    2
 10
318.67631610445778
 20
1620.9999999999998
 11
318.67631610445778
 21
1602.9999999999998
  0
LINE
  8
_0-0_LAY
  6
CONTINUOUS
 62
    2
 10
326.67631610445551
 20
1629.0000000000018
 11
318.67631610445778
 21
1620.9999999999998
  0
LINE
  8
_0-0_LAY
  6
CONTINUOUS
 62
    2
 10
304.67631610445551
 20
1620.9999999999998
 11
304.67631610445551
 21
1602.9999999999998
  0
LINE
  8
_0-0_LAY
  6
CONTINUOUS
 62
    2
 10
296.67631610445551
 20
1629.0000000000018
 11
257.17631610445551
 21
1629.0000000000018
  0
LINE
  8
_0-0_LAY
  6
CONTINUOUS
 62
    2
 10
304.67631610445551
 20
1620.9999999999998
 11
296.67631610445551
 21
1629.0000000000018
  0
LINE
  8
_0-0_LAY
  6
CONTINUOUS
 62
    2
 10
249.17631610445551
 20
1602.9999999999998
 11
249.17631610445551
 21
1620.9999999999998
  0
LINE
  8
_0-0_LAY
  6
CONTINUOUS
 62
    2
 10
257.17631610445551
 20
1595.0000000000018
 11
296.67631610445551
 21
1595.0000000000018
  0
LINE
  8
_0-0_LAY
  6
CONTINUOUS
 62
    2
 10
249.17631610445551
 20
1602.9999999999998
 11
257.17631610445551
 21
1595.0000000000018
  0
LINE
  8
_0-0_LAY
  6
CONTINUOUS
 62
    2
 10
235.17631610445596
 20
1602.9999999999998
 11
235.17631610445596
 21
1620.9999999999998
  0
LINE
  8
_0-0_LAY
  6
CONTINUOUS
 62
    2
 10
227.17631610445551
 20
1595.0000000000018
 11
187.67631610445596
 21
1595.0000000000018
  0
LINE
  8
_0-0_LAY
  6
CONTINUOUS
 62
    2
 10
235.17631610445596
 20
1602.9999999999998
 11
227.17631610445551
 21
1595.0000000000018
  0
LINE
  8
_0-0_LAY
  6
CENTER1
 62
    2
 10
450.67631610445369
 20
1621.9999999999998
 11
450.67631610445369
 21
1635.9999999999998
  0
LINE
  8
_0-0_LAY
  6
CENTER1
 62
    2
 10
458.17631610445369
 20
1629.0000000000018
 11
443.17631610445369
 21
1629.0000000000018
  0
CIRCLE
  8
_0-0_LAY
  6
CONTINUOUS
 62
    2
 10
450.67631529961091
 20
1629.0000044989099
 40
1.3
  0
LINE
  8
_0-0_LAY
  6
CENTER1
 62
    2
 10
520.17631610445596
 20
1587.9999999999998
 11
520.17631610445596
 21
1601.9999999999998
  0
LINE
  8
_0-0_LAY
  6
CENTER1
 62
    2
 10
527.67631610445596
 20
1595.0000000000018
 11
512.67631610445596
 21
1595.0000000000018
  0
CIRCLE
  8
_0-0_LAY
  6
CONTINUOUS
 62
    2
 10
520.17631259955942
 20
1595.0000010087658
 40
1.3
  0
LINE
  8
_0-0_LAY
  6
CENTER1
 62
    2
 10
589.67631610445551
 20
1621.9999999999998
 11
589.67631610445551
 21
1635.9999999999998
  0
LINE
  8
_0-0_LAY
  6
CENTER1
 62
    2
 10
597.17631610445551
 20
1629.0000000000018
 11
582.17631610445551
 21
1629.0000000000018
  0
CIRCLE
  8
_0-0_LAY
  6
CONTINUOUS
 62
    2
 10
589.67631529961272
 20
1629.0000044989099
 40
1.3
  0
LINE
  8
_0-0_LAY
  6
CENTER1
 62
    2
 10
311.67631610445551
 20
1621.9999999999998
 11
311.67631610445551
 21
1635.9999999999998
  0
LINE
  8
_0-0_LAY
  6
CENTER1
 62
    2
 10
319.17631610445551
 20
1629.0000000000018
 11
304.17631610445551
 21
1629.0000000000018
  0
CIRCLE
  8
_0-0_LAY
  6
CONTINUOUS
 62
    2
 10
311.67631529961318
 20
1629.0000044989099
 40
1.3
  0
LINE
  8
_0-0_LAY
  6
CENTER1
 62
    2
 10
381.17631610445778
 20
1587.9999999999998
 11
381.17631610445778
 21
1601.9999999999998
  0
CIRCLE
  8
_0-0_LAY
  6
CONTINUOUS
 62
    2
 10
381.17631259955942
 20
1595.0000010087658
 40
1.3
  0
LINE
  8
_0-0_LAY
  6
CENTER1
 62
    2
 10
388.67631610445778
 20
1595.0000000000018
 11
373.67631610445778
 21
1595.0000000000018
  0
LINE
  8
_0-0_LAY
  6
CONTINUOUS
 62
    2
 10
665.92631610445562
 20
1639.9999999999998
 11
663.92631610445574
 21
1641.9999999999998
  0
LINE
  8
_0-0_LAY
  6
CONTINUOUS
 62
    2
 10
167.92631610445551
 20
1641.9999999999998
 11
663.92631610445574
 21
1641.9999999999998
  0
LINE
  8
_0-0_LAY
  6
CONTINUOUS
 62
    2
 10
167.92631610445551
 20
1641.9999999999998
 11
165.92631610445551
 21
1639.9999999999998
  0
LINE
  8
_0-0_LAY
  6
CONTINUOUS
 62
    2
 10
165.92631610445551
 20
1583.9999999999998
 11
165.92631610445551
 21
1639.9999999999998
  0
LINE
  8
_0-0_LAY
  6
CONTINUOUS
 62
    2
 10
165.92631610445551
 20
1583.9999999999998
 11
167.92631610445551
 21
1581.9999999999998
  0
LINE
  8
_0-0_LAY
  6
CONTINUOUS
 62
    2
 10
665.92631610445562
 20
1583.9999999999998
 11
665.92631610445562
 21
1639.9999999999998
  0
LINE
  8
_0-0_LAY
  6
CONTINUOUS
 62
    2
 10
663.92631610445574
 20
1581.9999999999998
 11
167.92631610445551
 21
1581.9999999999998
  0
LINE
  8
_0-0_LAY
  6
CONTINUOUS
 62
    2
 10
665.92631610445562
 20
1583.9999999999998
 11
663.92631610445574
 21
1581.9999999999998
  0
LINE
  8
_0-0_LAY
  6
CENTER1
 62
    2
 10
242.17631610445733
 20
1587.9999999999998
 11
242.17631610445733
 21
1601.9999999999998
  0
CIRCLE
  8
_0-0_LAY
  6
CONTINUOUS
 62
    2
 10
242.17631259955988
 20
1595.0000010087658
 40
1.3
  0
LINE
  8
_0-0_LAY
  6
CENTER1
 62
    2
 10
249.67631610445733
 20
1595.0000000000018
 11
234.67631610445733
 21
1595.0000000000018
  0
LINE
  8
_0-0_LAY
  6
CENTER1
 62
    2
 10
385.92631610445551
 20
1212.9999999999989
 11
399.92631610445551
 21
1212.9999999999989
  0
LINE
  8
_0-0_LAY
  6
CONTINUOUS
 62
    2
 10
165.92631610445551
 20
1223.9999999999989
 11
165.92631610445551
 21
1167.9999999999989
  0
LINE
  8
_0-0_LAY
  6
CONTINUOUS
 62
    2
 10
765.92631610445551
 20
1223.9999999999989
 11
765.92631610445551
 21
1167.9999999999989
  0
ARC
  8
_0-0_LAY
  6
CONTINUOUS
 62
    2
 10
188.92631610445596
 20
1204.9999999999989
 40
8
 50
90
 51
180
  0
LINE
  8
_0-0_LAY
  6
CONTINUOUS
 62
    2
 10
180.92631610445551
 20
1186.9999999999989
 11
180.92631610445551
 21
1204.9999999999989
  0
ARC
  8
_0-0_LAY
  6
CONTINUOUS
 62
    2
 10
188.92631610445596
 20
1186.9999999999989
 40
8
 50
180
 51
270
  0
LINE
  8
_0-0_LAY
  6
CONTINUOUS
 62
    2
 10
231.92631610445596
 20
1178.9999999999989
 11
188.92631610445596
 21
1178.9999999999989
  0
ARC
  8
_0-0_LAY
  6
CONTINUOUS
 62
    2
 10
231.92631610445596
 20
1186.9999999999989
 40
8
 50
270
 51
0
  0
ARC
  8
_0-0_LAY
  6
CONTINUOUS
 62
    2
 10
261.92631610445596
 20
1186.9999999999989
 40
8
 50
180
 51
270
  0
ARC
  8
_0-0_LAY
  6
CONTINUOUS
 62
    2
 10
304.92631610445551
 20
1204.9999999999989
 40
8
 50
0
 51
90
  0
ARC
  8
_0-0_LAY
  6
CONTINUOUS
 62
    2
 10
334.92631610445551
 20
1204.9999999999989
 40
8
 50
90
 51
180
  0
ARC
  8
_0-0_LAY
  6
CONTINUOUS
 62
    2
 10
377.92631610445551
 20
1186.9999999999989
 40
8
 50
270
 51
0
  0
ARC
  8
_0-0_LAY
  6
CONTINUOUS
 62
    2
 10
407.92631610445551
 20
1186.9999999999989
 40
8
 50
180
 51
270
  0
ARC
  8
_0-0_LAY
  6
CONTINUOUS
 62
    2
 10
450.92631610445551
 20
1204.9999999999989
 40
8
 50
0
 51
90
  0
ARC
  8
_0-0_LAY
  6
CONTINUOUS
 62
    2
 10
480.92631610445551
 20
1204.9999999999989
 40
8
 50
90
 51
180
  0
ARC
  8
_0-0_LAY
  6
CONTINUOUS
 62
    2
 10
523.92631610445596
 20
1186.9999999999989
 40
8
 50
270
 51
0
  0
ARC
  8
_0-0_LAY
  6
CONTINUOUS
 62
    2
 10
553.92631610445596
 20
1186.9999999999989
 40
8
 50
180
 51
270
  0
ARC
  8
_0-0_LAY
  6
CONTINUOUS
 62
    2
 10
596.92631610445551
 20
1204.9999999999989
 40
8
 50
0
 51
90
  0
ARC
  8
_0-0_LAY
  6
CONTINUOUS
 62
    2
 10
626.92631610445551
 20
1204.9999999999989
 40
8
 50
90
 51
180
  0
ARC
  8
_0-0_LAY
  6
CONTINUOUS
 62
    2
 10
669.92631610445562
 20
1186.9999999999989
 40
8
 50
270
 51
0
  0
ARC
  8
_0-0_LAY
  6
CONTINUOUS
 62
    2
 10
699.92631610445562
 20
1186.9999999999989
 40
8
 50
180
 51
270
  0
LINE
  8
_0-0_LAY
  6
CONTINUOUS
 62
    2
 10
742.92631610445551
 20
1178.9999999999989
 11
699.92631610445562
 21
1178.9999999999989
  0
ARC
  8
_0-0_LAY
  6
CONTINUOUS
 62
    2
 10
742.92631610445551
 20
1186.9999999999989
 40
8
 50
270
 51
0
  0
LINE
  8
_0-0_LAY
  6
CONTINUOUS
 62
    2
 10
750.92631610445551
 20
1204.9999999999989
 11
750.92631610445551
 21
1186.9999999999989
  0
ARC
  8
_0-0_LAY
  6
CONTINUOUS
 62
    2
 10
742.92631610445551
 20
1204.9999999999989
 40
8
 50
0
 51
90.000000000000057
  0
LINE
  8
_0-0_LAY
  6
CONTINUOUS
 62
    2
 10
699.92631610445562
 20
1212.9999999999989
 11
742.92631610445551
 21
1212.9999999999989
  0
LINE
  8
_0-0_LAY
  6
CONTINUOUS
 62
    2
 10
691.92631610445574
 20
1204.9999999999989
 11
691.92631610445574
 21
1186.9999999999989
  0
LINE
  8
_0-0_LAY
  6
CONTINUOUS
 62
    2
 10
699.92631610445562
 20
1212.9999999999989
 11
691.92631610445574
 21
1204.9999999999989
  0
LINE
  8
_0-0_LAY
  6
CONTINUOUS
 62
    2
 10
669.92631610445562
 20
1212.9999999999989
 11
626.92631610445551
 21
1212.9999999999989
  0
LINE
  8
_0-0_LAY
  6
CONTINUOUS
 62
    2
 10
677.92631610445551
 20
1204.9999999999989
 11
677.92631610445551
 21
1186.9999999999989
  0
LINE
  8
_0-0_LAY
  6
CONTINUOUS
 62
    2
 10
669.92631610445562
 20
1212.9999999999989
 11
677.92631610445551
 21
1204.9999999999989
  0
LINE
  8
_0-0_LAY
  6
CONTINUOUS
 62
    2
 10
618.92631610445596
 20
1186.9999999999989
 11
618.92631610445596
 21
1204.9999999999989
  0
LINE
  8
_0-0_LAY
  6
CONTINUOUS
 62
    2
 10
626.92631610445551
 20
1178.9999999999989
 11
669.92631610445562
 21
1178.9999999999989
  0
LINE
  8
_0-0_LAY
  6
CONTINUOUS
 62
    2
 10
618.92631610445596
 20
1186.9999999999989
 11
626.92631610445551
 21
1178.9999999999989
  0
LINE
  8
_0-0_LAY
  6
CONTINUOUS
 62
    2
 10
604.92631610445551
 20
1186.9999999999989
 11
604.92631610445551
 21
1204.9999999999989
  0
LINE
  8
_0-0_LAY
  6
CONTINUOUS
 62
    2
 10
596.92631610445551
 20
1178.9999999999989
 11
553.92631610445596
 21
1178.9999999999989
  0
LINE
  8
_0-0_LAY
  6
CONTINUOUS
 62
    2
 10
604.92631610445551
 20
1186.9999999999989
 11
596.92631610445551
 21
1178.9999999999989
  0
LINE
  8
_0-0_LAY
  6
CONTINUOUS
 62
    2
 10
553.92631610445596
 20
1212.9999999999989
 11
596.92631610445551
 21
1212.9999999999989
  0
LINE
  8
_0-0_LAY
  6
CONTINUOUS
 62
    2
 10
545.92631610445551
 20
1204.9999999999989
 11
545.92631610445551
 21
1186.9999999999989
  0
LINE
  8
_0-0_LAY
  6
CONTINUOUS
 62
    2
 10
553.92631610445596
 20
1212.9999999999989
 11
545.92631610445551
 21
1204.9999999999989
  0
LINE
  8
_0-0_LAY
  6
CONTINUOUS
 62
    2
 10
523.92631610445596
 20
1212.9999999999989
 11
480.92631610445551
 21
1212.9999999999989
  0
LINE
  8
_0-0_LAY
  6
CONTINUOUS
 62
    2
 10
531.92631610445551
 20
1204.9999999999989
 11
531.92631610445551
 21
1186.9999999999989
  0
LINE
  8
_0-0_LAY
  6
CONTINUOUS
 62
    2
 10
523.92631610445596
 20
1212.9999999999989
 11
531.92631610445551
 21
1204.9999999999989
  0
LINE
  8
_0-0_LAY
  6
CONTINUOUS
 62
    2
 10
472.92631610445551
 20
1186.9999999999989
 11
472.92631610445551
 21
1204.9999999999989
  0
LINE
  8
_0-0_LAY
  6
CONTINUOUS
 62
    2
 10
480.92631610445551
 20
1178.9999999999989
 11
523.92631610445596
 21
1178.9999999999989
  0
LINE
  8
_0-0_LAY
  6
CONTINUOUS
 62
    2
 10
472.92631610445551
 20
1186.9999999999989
 11
480.92631610445551
 21
1178.9999999999989
  0
LINE
  8
_0-0_LAY
  6
CONTINUOUS
 62
    2
 10
458.92631610445596
 20
1186.9999999999989
 11
458.92631610445596
 21
1204.9999999999989
  0
LINE
  8
_0-0_LAY
  6
CONTINUOUS
 62
    2
 10
450.92631610445551
 20
1178.9999999999989
 11
407.92631610445551
 21
1178.9999999999989
  0
LINE
  8
_0-0_LAY
  6
CONTINUOUS
 62
    2
 10
458.92631610445596
 20
1186.9999999999989
 11
450.92631610445551
 21
1178.9999999999989
  0
LINE
  8
_0-0_LAY
  6
CONTINUOUS
 62
    2
 10
407.92631610445551
 20
1212.9999999999989
 11
450.92631610445551
 21
1212.9999999999989
  0
LINE
  8
_0-0_LAY
  6
CONTINUOUS
 62
    2
 10
399.92631610445551
 20
1204.9999999999989
 11
399.92631610445551
 21
1186.9999999999989
  0
LINE
  8
_0-0_LAY
  6
CONTINUOUS
 62
    2
 10
407.92631610445551
 20
1212.9999999999989
 11
399.92631610445551
 21
1204.9999999999989
  0
LINE
  8
_0-0_LAY
  6
CONTINUOUS
 62
    2
 10
385.92631610445551
 20
1204.9999999999989
 11
385.92631610445551
 21
1186.9999999999989
  0
LINE
  8
_0-0_LAY
  6
CONTINUOUS
 62
    2
 10
377.92631610445551
 20
1212.9999999999989
 11
334.92631610445551
 21
1212.9999999999989
  0
LINE
  8
_0-0_LAY
  6
CONTINUOUS
 62
    2
 10
385.92631610445551
 20
1204.9999999999989
 11
377.92631610445551
 21
1212.9999999999989
  0
LINE
  8
_0-0_LAY
  6
CONTINUOUS
 62
    2
 10
326.92631610445596
 20
1186.9999999999989
 11
326.92631610445596
 21
1204.9999999999989
  0
LINE
  8
_0-0_LAY
  6
CONTINUOUS
 62
    2
 10
326.92631610445596
 20
1186.9999999999989
 11
334.92631610445551
 21
1178.9999999999989
  0
LINE
  8
_0-0_LAY
  6
CONTINUOUS
 62
    2
 10
312.92631610445551
 20
1186.9999999999989
 11
312.92631610445551
 21
1204.9999999999989
  0
LINE
  8
_0-0_LAY
  6
CONTINUOUS
 62
    2
 10
304.92631610445551
 20
1178.9999999999989
 11
261.92631610445596
 21
1178.9999999999989
  0
LINE
  8
_0-0_LAY
  6
CONTINUOUS
 62
    2
 10
312.92631610445551
 20
1186.9999999999989
 11
304.92631610445551
 21
1178.9999999999989
  0
LINE
  8
_0-0_LAY
  6
CONTINUOUS
 62
    2
 10
253.92631610445596
 20
1204.9999999999989
 11
253.92631610445596
 21
1186.9999999999989
  0
LINE
  8
_0-0_LAY
  6
CONTINUOUS
 62
    2
 10
261.92631610445596
 20
1212.9999999999989
 11
253.92631610445596
 21
1204.9999999999989
  0
LINE
  8
_0-0_LAY
  6
CONTINUOUS
 62
    2
 10
239.92631610445551
 20
1204.9999999999989
 11
239.92631610445551
 21
1186.9999999999989
  0
LINE
  8
_0-0_LAY
  6
CONTINUOUS
 62
    2
 10
231.92631610445596
 20
1212.9999999999989
 11
188.92631610445596
 21
1212.9999999999989
  0
LINE
  8
_0-0_LAY
  6
CONTINUOUS
 62
    2
 10
239.92631610445551
 20
1204.9999999999989
 11
231.92631610445596
 21
1212.9999999999989
  0
LINE
  8
_0-0_LAY
  6
CONTINUOUS
 62
    2
 10
261.92631610445596
 20
1212.9999999999989
 11
304.92631610445551
 21
1212.9999999999989
  0
LINE
  8
_0-0_LAY
  6
CENTER1
 62
    2
 10
246.92631610445596
 20
1220.9999999999989
 11
246.92631610445596
 21
1204.9999999999989
  0
LINE
  8
_0-0_LAY
  6
CONTINUOUS
 62
    2
 10
334.92631610445551
 20
1178.9999999999989
 11
377.92631610445551
 21
1178.9999999999989
  0
LINE
  8
_0-0_LAY
  6
CENTER1
 62
    2
 10
319.92631610445551
 20
1186.9999999999989
 11
319.92631610445551
 21
1170.9999999999989
  0
LINE
  8
_0-0_LAY
  6
CENTER1
 62
    2
 10
312.92631610445551
 20
1178.9999999999989
 11
326.92631610445596
 21
1178.9999999999989
  0
LINE
  8
_0-0_LAY
  6
CENTER1
 62
    2
 10
239.92631610445551
 20
1212.9999999999989
 11
253.92631610445596
 21
1212.9999999999989
  0
CIRCLE
  8
_0-0_LAY
  6
CONTINUOUS
 62
    2
 10
246.92631205167709
 20
1213.0000061745259
 40
1.3
  0
CIRCLE
  8
_0-0_LAY
  6
CONTINUOUS
 62
    2
 10
319.92631997632998
 20
1179.0000069923049
 40
1.3
  0
LINE
  8
_0-0_LAY
  6
CENTER1
 62
    2
 10
465.92631610445551
 20
1186.9999999999989
 11
465.92631610445551
 21
1170.9999999999989
  0
LINE
  8
_0-0_LAY
  6
CENTER1
 62
    2
 10
458.92631610445596
 20
1178.9999999999989
 11
472.92631610445551
 21
1178.9999999999989
  0
CIRCLE
  8
_0-0_LAY
  6
CONTINUOUS
 62
    2
 10
465.92631997632998
 20
1179.0000069923049
 40
1.3
  0
LINE
  8
_0-0_LAY
  6
CENTER1
 62
    2
 10
538.92631610445596
 20
1220.9999999999989
 11
538.92631610445596
 21
1204.9999999999989
  0
LINE
  8
_0-0_LAY
  6
CENTER1
 62
    2
 10
531.92631610445551
 20
1212.9999999999989
 11
545.92631610445551
 21
1212.9999999999989
  0
CIRCLE
  8
_0-0_LAY
  6
CONTINUOUS
 62
    2
 10
538.92631205167709
 20
1213.0000061745259
 40
1.3
  0
LINE
  8
_0-0_LAY
  6
CENTER1
 62
    2
 10
611.92631610445551
 20
1186.9999999999989
 11
611.92631610445551
 21
1170.9999999999989
  0
LINE
  8
_0-0_LAY
  6
CENTER1
 62
    2
 10
604.92631610445551
 20
1178.9999999999989
 11
618.92631610445596
 21
1178.9999999999989
  0
CIRCLE
  8
_0-0_LAY
  6
CONTINUOUS
 62
    2
 10
611.92631997633043
 20
1179.0000069923049
 40
1.3
  0
LINE
  8
_0-0_LAY
  6
CENTER1
 62
    2
 10
684.92631610445562
 20
1220.9999999999989
 11
684.92631610445562
 21
1204.9999999999989
  0
LINE
  8
_0-0_LAY
  6
CENTER1
 62
    2
 10
677.92631610445551
 20
1212.9999999999989
 11
691.92631610445574
 21
1212.9999999999989
  0
CIRCLE
  8
_0-0_LAY
  6
CONTINUOUS
 62
    2
 10
684.92631205167663
 20
1213.0000061745259
 40
1.3
  0
CIRCLE
  8
_0-0_LAY
  6
CONTINUOUS
 62
    2
 10
392.92631223209764
 20
1213.0000022379547
 40
1.3
  0
LINE
  8
_0-0_LAY
  6
CENTER1
 62
    2
 10
392.92631610445551
 20
1220.9999999999989
 11
392.92631610445551
 21
1204.9999999999989
  0
LINE
  8
_0-0_LAY
  6
CONTINUOUS
 62
    2
 10
165.92631610445551
 20
1223.9999999999989
 11
167.92631610445551
 21
1225.9999999999989
  0
LINE
  8
_0-0_LAY
  6
CONTINUOUS
 62
    2
 10
165.92631610445551
 20
1167.9999999999989
 11
167.92631610445551
 21
1165.9999999999989
  0
LINE
  8
_0-0_LAY
  6
CONTINUOUS
 62
    2
 10
763.92631610445562
 20
1225.9999999999989
 11
167.92631610445551
 21
1225.9999999999989
  0
LINE
  8
_0-0_LAY
  6
CONTINUOUS
 62
    2
 10
763.92631610445562
 20
1225.9999999999989
 11
765.92631610445551
 21
1223.9999999999989
  0
LINE
  8
_0-0_LAY
  6
CONTINUOUS
 62
    2
 10
763.92631610445562
 20
1165.9999999999989
 11
167.92631610445551
 21
1165.9999999999989
  0
LINE
  8
_0-0_LAY
  6
CONTINUOUS
 62
    2
 10
765.92631610445551
 20
1167.9999999999989
 11
763.92631610445562
 21
1165.9999999999989
  0
LINE
  8
_0-9_ADD_LINE
  6
CONTINUOUS
 62
    7
 10
1928.6860815030795
 20
2065.5
 11
1928.6860815030795
 21
1990.4999999999998
  0
POINT
  8
_0-9_ADD_LINE
 62
    7
 10
1928.6860815030795
 20
2065.5
  0
POINT
  8
_0-9_ADD_LINE
 62
    7
 10
1928.6860815030795
 20
1990.4999999999998
  0
LINE
  8
_0-9_ADD_LINE
  6
CONTINUOUS
 62
    7
 10
1928.6860815030795
 20
2065.5
 11
1958.6860815030807
 21
2065.5
  0
LINE
  8
_0-9_ADD_LINE
  6
CONTINUOUS
 62
    7
 10
1928.6860815030795
 20
1990.4999999999998
 11
1958.6860815030807
 21
1990.4999999999998
  0
POINT
  8
_0-9_ADD_LINE
 62
    7
 10
1988.6860815030807
 20
1930.4999999999998
  0
LINE
  8
_0-9_ADD_LINE
  6
CONTINUOUS
 62
    7
 10
1988.6860815030807
 20
1960.4999999999989
 11
1988.6860815030807
 21
1930.4999999999998
  0
LINE
  8
_0-9_ADD_LINE
  6
CONTINUOUS
 62
    7
 10
2438.6860815030795
 20
1960.4999999999989
 11
2438.6860815030795
 21
1930.4999999999998
  0
LINE
  8
_0-9_ADD_LINE
  6
CONTINUOUS
 62
    7
 10
1988.6860815030807
 20
1930.4999999999998
 11
2438.6860815030795
 21
1930.4999999999998
  0
TEXT
  8
_0-9_ADD_LINE
 62
    7
 10
2199.8438969627487
 20
1932.5809389877238
 40
16
 41
1
 50
0
  1
450
  0
LINE
  8
_0-9_ADD_LINE
  6
CONTINUOUS
 62
    7
 10
2116.4268178104694
 20
2065.5
 11
2116.4268178104694
 21
1990.4999999999998
  0
POINT
  8
_0-9_ADD_LINE
 62
    7
 10
2116.4268178104694
 20
2065.5
  0
POINT
  8
_0-9_ADD_LINE
 62
    7
 10
2116.4268178104694
 20
2051.5
  0
POINT
  8
_0-9_ADD_LINE
 62
    7
 10
2116.4268178104694
 20
2004.4999999999998
  0
POINT
  8
_0-9_ADD_LINE
 62
    7
 10
2116.4268178104694
 20
1990.4999999999998
  0
LINE
  8
_0-9_ADD_LINE
  6
CONTINUOUS
 62
    7
 10
1928.6860815030795
 20
1649.4999999999998
 11
1928.6860815030795
 21
1574.4999999999998
  0
POINT
  8
_0-9_ADD_LINE
 62
    7
 10
1928.6860815030795
 20
1649.4999999999998
  0
POINT
  8
_0-9_ADD_LINE
 62
    7
 10
1928.6860815030795
 20
1574.4999999999998
  0
LINE
  8
_0-9_ADD_LINE
  6
CONTINUOUS
 62
    7
 10
1928.6860815030795
 20
1649.4999999999998
 11
1958.6860815030807
 21
1649.4999999999998
  0
LINE
  8
_0-9_ADD_LINE
  6
CONTINUOUS
 62
    7
 10
1928.6860815030795
 20
1574.4999999999998
 11
1958.6860815030807
 21
1574.4999999999998
  0
LINE
  8
_0-9_ADD_LINE
  6
CONTINUOUS
 62
    7
 10
1988.6860815030807
 20
1514.4999999999998
 11
2488.6860815030805
 21
1514.4999999999998
  0
LINE
  8
_0-9_ADD_LINE
  6
CONTINUOUS
 62
    7
 10
1988.6860815030807
 20
1544.4999999999998
 11
1988.6860815030807
 21
1514.4999999999998
  0
LINE
  8
_0-9_ADD_LINE
  6
CONTINUOUS
 62
    7
 10
2488.6860815030805
 20
1544.4999999999998
 11
2488.6860815030805
 21
1514.4999999999998
  0
TEXT
  8
_0-9_ADD_LINE
 62
    7
 10
2221.6860815030795
 20
1517.0025903174458
 40
16
 41
1
 50
0
  1
500
  0
LINE
  8
_0-9_ADD_LINE
  6
CONTINUOUS
 62
    7
 10
1988.6860815030807
 20
1709.4999999999998
 11
2488.6860815030805
 21
1709.4999999999998
  0
POINT
  8
_0-9_ADD_LINE
 62
    7
 10
1988.6860815030807
 20
1709.4999999999998
  0
POINT
  8
_0-9_ADD_LINE
 62
    7
 10
2003.9860815030806
 20
1709.4999999999998
  0
LINE
  8
_0-9_ADD_LINE
  6
CONTINUOUS
 62
    7
 10
1988.6860815030807
 20
1709.4999999999998
 11
1988.6860815030807
 21
1679.4999999999998
  0
LINE
  8
_0-9_ADD_LINE
  6
CONTINUOUS
 62
    7
 10
2003.9860815030806
 20
1709.4999999999998
 11
2003.9860815030806
 21
1679.4999999999998
  0
POINT
  8
_0-9_ADD_LINE
 62
    7
 10
2058.1860815030795
 20
1709.4999999999998
  0
LINE
  8
_0-9_ADD_LINE
  6
CONTINUOUS
 62
    7
 10
2058.1860815030795
 20
1709.4999999999998
 11
2058.1860815030795
 21
1679.4999999999998
  0
POINT
  8
_0-9_ADD_LINE
 62
    7
 10
2073.1860815030795
 20
1709.4999999999998
  0
LINE
  8
_0-9_ADD_LINE
  6
CONTINUOUS
 62
    7
 10
2073.1860815030795
 20
1709.4999999999998
 11
2073.1860815030795
 21
1679.4999999999998
  0
POINT
  8
_0-9_ADD_LINE
 62
    7
 10
2127.3860815030798
 20
1709.4999999999998
  0
LINE
  8
_0-9_ADD_LINE
  6
CONTINUOUS
 62
    7
 10
2127.3860815030798
 20
1709.4999999999998
 11
2127.3860815030798
 21
1679.4999999999998
  0
POINT
  8
_0-9_ADD_LINE
 62
    7
 10
2142.3860815030798
 20
1709.4999999999998
  0
LINE
  8
_0-9_ADD_LINE
  6
CONTINUOUS
 62
    7
 10
2142.3860815030798
 20
1709.4999999999998
 11
2142.3860815030798
 21
1679.4999999999998
  0
POINT
  8
_0-9_ADD_LINE
 62
    7
 10
2196.5860815030805
 20
1709.4999999999998
  0
LINE
  8
_0-9_ADD_LINE
  6
CONTINUOUS
 62
    7
 10
2196.5860815030805
 20
1709.4999999999998
 11
2196.5860815030805
 21
1679.4999999999998
  0
POINT
  8
_0-9_ADD_LINE
 62
    7
 10
2211.5860815030796
 20
1709.4999999999998
  0
LINE
  8
_0-9_ADD_LINE
  6
CONTINUOUS
 62
    7
 10
2211.5860815030796
 20
1709.4999999999998
 11
2211.5860815030796
 21
1679.4999999999998
  0
POINT
  8
_0-9_ADD_LINE
 62
    7
 10
2265.7860815030808
 20
1709.4999999999998
  0
LINE
  8
_0-9_ADD_LINE
  6
CONTINUOUS
 62
    7
 10
2265.7860815030808
 20
1709.4999999999998
 11
2265.7860815030808
 21
1679.4999999999998
  0
POINT
  8
_0-9_ADD_LINE
 62
    7
 10
2280.7860815030808
 20
1709.4999999999998
  0
LINE
  8
_0-9_ADD_LINE
  6
CONTINUOUS
 62
    7
 10
2280.7860815030808
 20
1709.4999999999998
 11
2280.7860815030808
 21
1679.4999999999998
  0
POINT
  8
_0-9_ADD_LINE
 62
    7
 10
2334.9860815030806
 20
1709.4999999999998
  0
LINE
  8
_0-9_ADD_LINE
  6
CONTINUOUS
 62
    7
 10
2334.9860815030806
 20
1709.4999999999998
 11
2334.9860815030806
 21
1679.4999999999998
  0
POINT
  8
_0-9_ADD_LINE
 62
    7
 10
2349.9860815030806
 20
1709.4999999999998
  0
LINE
  8
_0-9_ADD_LINE
  6
CONTINUOUS
 62
    7
 10
2349.9860815030806
 20
1709.4999999999998
 11
2349.9860815030806
 21
1679.4999999999998
  0
POINT
  8
_0-9_ADD_LINE
 62
    7
 10
2404.1860815030805
 20
1709.4999999999998
  0
LINE
  8
_0-9_ADD_LINE
  6
CONTINUOUS
 62
    7
 10
2404.1860815030805
 20
1709.4999999999998
 11
2404.1860815030805
 21
1679.4999999999998
  0
POINT
  8
_0-9_ADD_LINE
 62
    7
 10
2419.1860815030805
 20
1709.4999999999998
  0
LINE
  8
_0-9_ADD_LINE
  6
CONTINUOUS
 62
    7
 10
2419.1860815030805
 20
1709.4999999999998
 11
2419.1860815030805
 21
1679.4999999999998
  0
POINT
  8
_0-9_ADD_LINE
 62
    7
 10
2473.3860815030807
 20
1709.4999999999998
  0
LINE
  8
_0-9_ADD_LINE
  6
CONTINUOUS
 62
    7
 10
2473.3860815030807
 20
1709.4999999999998
 11
2473.3860815030807
 21
1679.4999999999998
  0
POINT
  8
_0-9_ADD_LINE
 62
    7
 10
2488.6860815030805
 20
1709.4999999999998
  0
LINE
  8
_0-9_ADD_LINE
  6
CONTINUOUS
 62
    7
 10
2488.6860815030805
 20
1709.4999999999998
 11
2488.6860815030805
 21
1679.4999999999998
  0
LINE
  8
_0-9_ADD_LINE
  6
CONTINUOUS
 62
    7
 10
2116.4268178104694
 20
1649.4999999999998
 11
2116.4268178104694
 21
1574.4999999999998
  0
POINT
  8
_0-9_ADD_LINE
 62
    7
 10
2116.4268178104694
 20
1649.4999999999998
  0
POINT
  8
_0-9_ADD_LINE
 62
    7
 10
2116.4268178104694
 20
1635.4999999999998
  0
POINT
  8
_0-9_ADD_LINE
 62
    7
 10
2116.4268178104694
 20
1588.4999999999998
  0
LINE
  8
_0-9_ADD_LINE
  6
CONTINUOUS
 62
    7
 10
2116.4268178104694
 20
1588.4999999999998
 11
2104.3860815030798
 21
1588.4999999999998
  0
POINT
  8
_0-9_ADD_LINE
 62
    7
 10
2116.4268178104694
 20
1574.4999999999998
  0
LINE
  8
_0-9_ADD_LINE
  6
CONTINUOUS
 62
    7
 10
1928.6860815030795
 20
1233.4999999999989
 11
1928.6860815030795
 21
1158.4999999999989
  0
POINT
  8
_0-9_ADD_LINE
 62
    7
 10
1928.6860815030795
 20
1233.4999999999989
  0
POINT
  8
_0-9_ADD_LINE
 62
    7
 10
1928.6860815030795
 20
1158.4999999999989
  0
LINE
  8
_0-9_ADD_LINE
  6
CONTINUOUS
 62
    7
 10
1928.6860815030795
 20
1233.4999999999989
 11
1958.6860815030807
 21
1233.4999999999989
  0
LINE
  8
_0-9_ADD_LINE
  6
CONTINUOUS
 62
    7
 10
1928.6860815030795
 20
1158.4999999999989
 11
1958.6860815030807
 21
1158.4999999999989
  0
LINE
  8
_0-9_ADD_LINE
  6
CONTINUOUS
 62
    7
 10
1988.6860815030807
 20
1099.4999999999989
 11
2588.6860815030805
 21
1099.4999999999989
  0
LINE
  8
_0-9_ADD_LINE
  6
CONTINUOUS
 62
    7
 10
1988.6860815030795
 20
1129.4999999999989
 11
1988.6860815030795
 21
1099.4999999999989
  0
LINE
  8
_0-9_ADD_LINE
  6
CONTINUOUS
 62
    7
 10
2588.6860815030805
 20
1129.4999999999989
 11
2588.6860815030805
 21
1099.4999999999989
  0
TEXT
  8
_0-9_ADD_LINE
 62
    7
 10
2271.6860815030795
 20
1102.7100266126808
 40
16
 41
1
 50
0
  1
600
  0
LINE
  8
_0-9_ADD_LINE
  6
CONTINUOUS
 62
    7
 10
1988.6860815030807
 20
1293.4999999999989
 11
2588.6860815030805
 21
1293.4999999999989
  0
POINT
  8
_0-9_ADD_LINE
 62
    7
 10
1988.6860815030807
 20
1293.4999999999989
  0
POINT
  8
_0-9_ADD_LINE
 62
    7
 10
2003.7860815030806
 20
1293.4999999999989
  0
LINE
  8
_0-9_ADD_LINE
  6
CONTINUOUS
 62
    7
 10
1988.6860815030807
 20
1293.4999999999989
 11
1988.6860815030807
 21
1263.4999999999989
  0
LINE
  8
_0-9_ADD_LINE
  6
CONTINUOUS
 62
    7
 10
2003.7860815030806
 20
1293.4999999999989
 11
2003.7860815030806
 21
1263.4999999999989
  0
POINT
  8
_0-9_ADD_LINE
 62
    7
 10
2061.8860815030807
 20
1293.4999999999989
  0
LINE
  8
_0-9_ADD_LINE
  6
CONTINUOUS
 62
    7
 10
2061.8860815030807
 20
1293.4999999999989
 11
2061.8860815030807
 21
1263.4999999999989
  0
POINT
  8
_0-9_ADD_LINE
 62
    7
 10
2076.8860815030798
 20
1293.4999999999989
  0
LINE
  8
_0-9_ADD_LINE
  6
CONTINUOUS
 62
    7
 10
2076.8860815030798
 20
1293.4999999999989
 11
2076.8860815030798
 21
1263.4999999999989
  0
POINT
  8
_0-9_ADD_LINE
 62
    7
 10
2134.9860815030806
 20
1293.4999999999989
  0
LINE
  8
_0-9_ADD_LINE
  6
CONTINUOUS
 62
    7
 10
2134.9860815030806
 20
1293.4999999999989
 11
2134.9860815030806
 21
1263.4999999999989
  0
POINT
  8
_0-9_ADD_LINE
 62
    7
 10
2149.9860815030806
 20
1293.4999999999989
  0
LINE
  8
_0-9_ADD_LINE
  6
CONTINUOUS
 62
    7
 10
2149.9860815030806
 20
1293.4999999999989
 11
2149.9860815030806
 21
1263.4999999999989
  0
POINT
  8
_0-9_ADD_LINE
 62
    7
 10
2208.0860815030796
 20
1293.4999999999989
  0
LINE
  8
_0-9_ADD_LINE
  6
CONTINUOUS
 62
    7
 10
2208.0860815030796
 20
1293.4999999999989
 11
2208.0860815030796
 21
1263.4999999999989
  0
POINT
  8
_0-9_ADD_LINE
 62
    7
 10
2223.0860815030805
 20
1293.4999999999989
  0
LINE
  8
_0-9_ADD_LINE
  6
CONTINUOUS
 62
    7
 10
2223.0860815030805
 20
1293.4999999999989
 11
2223.0860815030805
 21
1263.4999999999989
  0
POINT
  8
_0-9_ADD_LINE
 62
    7
 10
2281.1860815030805
 20
1293.4999999999989
  0
LINE
  8
_0-9_ADD_LINE
  6
CONTINUOUS
 62
    7
 10
2281.1860815030805
 20
1293.4999999999989
 11
2281.1860815030805
 21
1263.4999999999989
  0
POINT
  8
_0-9_ADD_LINE
 62
    7
 10
2296.1860815030795
 20
1293.4999999999989
  0
LINE
  8
_0-9_ADD_LINE
  6
CONTINUOUS
 62
    7
 10
2296.1860815030795
 20
1293.4999999999989
 11
2296.1860815030795
 21
1263.4999999999989
  0
POINT
  8
_0-9_ADD_LINE
 62
    7
 10
2354.2860815030808
 20
1293.4999999999989
  0
LINE
  8
_0-9_ADD_LINE
  6
CONTINUOUS
 62
    7
 10
2354.2860815030808
 20
1293.4999999999989
 11
2354.2860815030808
 21
1263.4999999999989
  0
POINT
  8
_0-9_ADD_LINE
 62
    7
 10
2369.2860815030808
 20
1293.4999999999989
  0
LINE
  8
_0-9_ADD_LINE
  6
CONTINUOUS
 62
    7
 10
2369.2860815030808
 20
1293.4999999999989
 11
2369.2860815030808
 21
1263.4999999999989
  0
POINT
  8
_0-9_ADD_LINE
 62
    7
 10
2427.3860815030798
 20
1293.4999999999989
  0
LINE
  8
_0-9_ADD_LINE
  6
CONTINUOUS
 62
    7
 10
2427.3860815030798
 20
1293.4999999999989
 11
2427.3860815030798
 21
1263.4999999999989
  0
POINT
  8
_0-9_ADD_LINE
 62
    7
 10
2442.3860815030807
 20
1293.4999999999989
  0
LINE
  8
_0-9_ADD_LINE
  6
CONTINUOUS
 62
    7
 10
2442.3860815030807
 20
1293.4999999999989
 11
2442.3860815030807
 21
1263.4999999999989
  0
POINT
  8
_0-9_ADD_LINE
 62
    7
 10
2500.4860815030806
 20
1293.4999999999989
  0
LINE
  8
_0-9_ADD_LINE
  6
CONTINUOUS
 62
    7
 10
2500.4860815030806
 20
1293.4999999999989
 11
2500.4860815030806
 21
1263.4999999999989
  0
POINT
  8
_0-9_ADD_LINE
 62
    7
 10
2515.4860815030806
 20
1293.4999999999989
  0
LINE
  8
_0-9_ADD_LINE
  6
CONTINUOUS
 62
    7
 10
2515.4860815030806
 20
1293.4999999999989
 11
2515.4860815030806
 21
1263.4999999999989
  0
POINT
  8
_0-9_ADD_LINE
 62
    7
 10
2573.5860815030796
 20
1293.4999999999989
  0
LINE
  8
_0-9_ADD_LINE
  6
CONTINUOUS
 62
    7
 10
2573.5860815030796
 20
1293.4999999999989
 11
2573.5860815030796
 21
1263.4999999999989
  0
POINT
  8
_0-9_ADD_LINE
 62
    7
 10
2588.6860815030805
 20
1293.4999999999989
  0
LINE
  8
_0-9_ADD_LINE
  6
CONTINUOUS
 62
    7
 10
2588.6860815030805
 20
1293.4999999999989
 11
2588.6860815030805
 21
1263.4999999999989
  0
LINE
  8
_0-9_ADD_LINE
  6
CONTINUOUS
 62
    7
 10
2116.4268178104694
 20
1233.4999999999989
 11
2116.4268178104694
 21
1158.4999999999989
  0
POINT
  8
_0-9_ADD_LINE
 62
    7
 10
2116.4268178104694
 20
1233.4999999999989
  0
POINT
  8
_0-9_ADD_LINE
 62
    7
 10
2116.4268178104694
 20
1218.4999999999989
  0
POINT
  8
_0-9_ADD_LINE
 62
    7
 10
2116.4268178104694
 20
1173.4999999999989
  0
POINT
  8
_0-9_ADD_LINE
 62
    7
 10
2116.4268178104694
 20
1158.4999999999989
  0
TEXT
  8
_0-9_ADD_LINE
 62
    7
 10
2055.7792750809485
 20
1712.7180299805809
 40
16
 41
1
 50
0
  1
15
  0
TEXT
  8
_0-9_ADD_LINE
 62
    7
 10
2468.6873402137508
 20
1712.5102026313698
 40
16
 41
1
 50
0
  1
15.3
  0
TEXT
  8
_0-9_ADD_LINE
 62
    7
 10
2568.9472427253618
 20
1295.6473997412879
 40
16
 41
1
 50
0
  1
15.1
  0
LINE
  8
_0-9_ADD_LINE
  6
CONTINUOUS
 62
    7
 10
1988.6860815030807
 20
2125.5
 11
2438.6860815030795
 21
2125.5
  0
POINT
  8
_0-9_ADD_LINE
 62
    7
 10
1988.6860815030807
 20
2125.5
  0
POINT
  8
_0-9_ADD_LINE
 62
    7
 10
2003.6860815030807
 20
2125.5
  0
LINE
  8
_0-9_ADD_LINE
  6
CONTINUOUS
 62
    7
 10
1988.6860815030807
 20
2125.5
 11
1988.6860815030807
 21
2095.5
  0
LINE
  8
_0-9_ADD_LINE
  6
CONTINUOUS
 62
    7
 10
2003.6860815030807
 20
2125.5
 11
2003.6860815030807
 21
2095.5
  0
POINT
  8
_0-9_ADD_LINE
 62
    7
 10
2061.1860815030795
 20
2125.5
  0
LINE
  8
_0-9_ADD_LINE
  6
CONTINUOUS
 62
    7
 10
2061.1860815030795
 20
2125.5
 11
2061.1860815030795
 21
2095.5
  0
POINT
  8
_0-9_ADD_LINE
 62
    7
 10
2076.1860815030805
 20
2125.5
  0
LINE
  8
_0-9_ADD_LINE
  6
CONTINUOUS
 62
    7
 10
2076.1860815030805
 20
2125.5
 11
2076.1860815030805
 21
2095.5
  0
POINT
  8
_0-9_ADD_LINE
 62
    7
 10
2133.6860815030795
 20
2125.5
  0
LINE
  8
_0-9_ADD_LINE
  6
CONTINUOUS
 62
    7
 10
2133.6860815030795
 20
2125.5
 11
2133.6860815030795
 21
2095.5
  0
POINT
  8
_0-9_ADD_LINE
 62
    7
 10
2148.6860815030805
 20
2125.5
  0
LINE
  8
_0-9_ADD_LINE
  6
CONTINUOUS
 62
    7
 10
2148.6860815030805
 20
2125.5
 11
2148.6860815030805
 21
2095.5
  0
POINT
  8
_0-9_ADD_LINE
 62
    7
 10
2206.1860815030795
 20
2125.5
  0
LINE
  8
_0-9_ADD_LINE
  6
CONTINUOUS
 62
    7
 10
2206.1860815030795
 20
2125.5
 11
2206.1860815030795
 21
2095.5
  0
POINT
  8
_0-9_ADD_LINE
 62
    7
 10
2221.1860815030805
 20
2125.5
  0
LINE
  8
_0-9_ADD_LINE
  6
CONTINUOUS
 62
    7
 10
2221.1860815030805
 20
2125.5
 11
2221.1860815030805
 21
2095.5
  0
POINT
  8
_0-9_ADD_LINE
 62
    7
 10
2278.6860815030795
 20
2125.5
  0
LINE
  8
_0-9_ADD_LINE
  6
CONTINUOUS
 62
    7
 10
2278.6860815030795
 20
2125.5
 11
2278.6860815030795
 21
2095.5
  0
POINT
  8
_0-9_ADD_LINE
 62
    7
 10
2293.6860815030795
 20
2125.5
  0
LINE
  8
_0-9_ADD_LINE
  6
CONTINUOUS
 62
    7
 10
2293.6860815030795
 20
2125.5
 11
2293.6860815030795
 21
2095.5
  0
POINT
  8
_0-9_ADD_LINE
 62
    7
 10
2351.1860815030795
 20
2125.5
  0
LINE
  8
_0-9_ADD_LINE
  6
CONTINUOUS
 62
    7
 10
2351.1860815030795
 20
2125.5
 11
2351.1860815030795
 21
2095.5
  0
POINT
  8
_0-9_ADD_LINE
 62
    7
 10
2366.1860815030795
 20
2125.5
  0
LINE
  8
_0-9_ADD_LINE
  6
CONTINUOUS
 62
    7
 10
2366.1860815030795
 20
2125.5
 11
2366.1860815030795
 21
2095.5
  0
POINT
  8
_0-9_ADD_LINE
 62
    7
 10
2423.6860815030805
 20
2125.5
  0
LINE
  8
_0-9_ADD_LINE
  6
CONTINUOUS
 62
    7
 10
2423.6860815030805
 20
2125.5
 11
2423.6860815030805
 21
2095.5
  0
POINT
  8
_0-9_ADD_LINE
 62
    7
 10
2438.6860815030795
 20
2125.5
  0
LINE
  8
_0-9_ADD_LINE
  6
CONTINUOUS
 62
    7
 10
2438.6860815030795
 20
2125.5
 11
2438.6860815030795
 21
2095.5
  0
TEXT
  8
_0-9_ADD_LINE
 62
    7
 10
2421.5388687251234
 20
2127.5209662957436
 40
16
 41
1
 50
0
  1
15
  0
TEXT
  8
_0-9_ADD_LINE
 62
    7
 10
2115.9268178104694
 20
1989.9359626946598
 40
16
 41
1
 50
90
  1
14
  0
TEXT
  8
_0-9_ADD_LINE
 62
    7
 10
2115.9268178104694
 20
2020.2736077573331
 40
16
 41
1
 50
90
  1
47
  0
TEXT
  8
_0-9_ADD_LINE
 62
    7
 10
2115.9268178104694
 20
2051.2968971420141
 40
16
 41
1
 50
90
  1
14
  0
TEXT
  8
_0-9_ADD_LINE
 62
    7
 10
2115.9268178104694
 20
1573.377763166015
 40
16
 41
1
 50
90
  1
14
  0
TEXT
  8
_0-9_ADD_LINE
 62
    7
 10
2115.9268178104694
 20
1602.7560704941914
 40
16
 41
1
 50
90
  1
47
  0
TEXT
  8
_0-9_ADD_LINE
 62
    7
 10
2115.9268178104694
 20
1634.9559593944171
 40
16
 41
1
 50
90
  1
14
  0
TEXT
  8
_0-9_ADD_LINE
 62
    7
 10
2115.9268178104694
 20
1159.3468189816854
 40
16
 41
1
 50
90
  1
15
  0
TEXT
  8
_0-9_ADD_LINE
 62
    7
 10
2115.9268178104694
 20
1188.3470343792071
 40
16
 41
1
 50
90
  1
45
  0
TEXT
  8
_0-9_ADD_LINE
 62
    7
 10
2115.9268178104694
 20
1218.9894102516614
 40
16
 41
1
 50
90
  1
15
  0
TEXT
  8
_0-9_ADD_LINE
 62
    7
 10
1927.0893160177177
 20
1189.3501066280705
 40
16
 41
1
 50
90
  1
75
  0
TEXT
  8
_0-9_ADD_LINE
 62
    7
 10
1926.3096112643966
 20
1606.1075803552412
 40
16
 41
1
 50
90
  1
75
  0
TEXT
  8
_0-9_ADD_LINE
 62
    7
 10
1928.1860815030807
 20
2022.9507596226629
 40
16
 41
1
 50
90
  1
75
  0
TEXT
  8
_0-9_ADD_LINE
 62
    7
 10
2017.4993116096748
 20
1295.7298328804968
 40
16
 41
1
 50
0
  1
58.1
  0
TEXT
  8
_0-9_ADD_LINE
 62
    7
 10
1979.4079603870105
 20
1296.4830546957787
 40
16
 41
1
 50
0
  1
15.1
  0
TEXT
  8
_0-9_ADD_LINE
 62
    7
 10
2090.4823405522998
 20
1295.6309608965598
 40
16
 41
1
 50
0
  1
58.1
  0
TEXT
  8
_0-9_ADD_LINE
 62
    7
 10
2165.0398120121281
 20
1296.0459405569009
 40
16
 41
1
 50
0
  1
58.1
  0
TEXT
  8
_0-9_ADD_LINE
 62
    7
 10
2237.1086485254091
 20
1295.7298328804968
 40
16
 41
1
 50
0
  1
58.1
  0
TEXT
  8
_0-9_ADD_LINE
 62
    7
 10
2310.7265333217451
 20
1295.9278932724728
 40
16
 41
1
 50
0
  1
58.1
  0
TEXT
  8
_0-9_ADD_LINE
 62
    7
 10
2381.6780235324945
 20
1295.7298328804968
 40
16
 41
1
 50
0
  1
58.1
  0
TEXT
  8
_0-9_ADD_LINE
 62
    7
 10
2456.4386488655105
 20
1295.5318990581609
 40
16
 41
1
 50
0
  1
58.1
  0
TEXT
  8
_0-9_ADD_LINE
 62
    7
 10
2529.0915527642055
 20
1295.7298328804968
 40
16
 41
1
 50
0
  1
58.1
  0
TEXT
  8
_0-9_ADD_LINE
 62
    7
 10
2499.075568000746
 20
1295.4903268177989
 40
16
 41
1
 50
0
  1
15
  0
TEXT
  8
_0-9_ADD_LINE
 62
    7
 10
2426.6004237410898
 20
1295.1762020657559
 40
16
 41
1
 50
0
  1
15
  0
TEXT
  8
_0-9_ADD_LINE
 62
    7
 10
2353.4142409252777
 20
1295.9615666832108
 40
16
 41
1
 50
0
  1
15
  0
TEXT
  8
_0-9_ADD_LINE
 62
    7
 10
2281.0406736022155
 20
1295.8044937597158
 40
16
 41
1
 50
0
  1
15
  0
TEXT
  8
_0-9_ADD_LINE
 62
    7
 10
2207.9814619571453
 20
1296.2902258489348
 40
16
 41
1
 50
0
  1
15
  0
TEXT
  8
_0-9_ADD_LINE
 62
    7
 10
2135.0746157169656
 20
1296.0897606337937
 40
16
 41
1
 50
0
  1
15
  0
TEXT
  8
_0-9_ADD_LINE
 62
    7
 10
2061.8630386670047
 20
1296.0897606337937
 40
16
 41
1
 50
0
  1
15
  0
POINT
  8
_0-9_ADD_LINE
 62
    7
 10
1988.6860815030795
 20
1099.4999999999989
  0
POINT
  8
_0-9_ADD_LINE
 62
    7
 10
2588.6860815030805
 20
1099.4999999999989
  0
POINT
  8
_0-9_ADD_LINE
 62
    7
 10
1988.6860815030807
 20
1514.4999999999998
  0
POINT
  8
_0-9_ADD_LINE
 62
    7
 10
2488.6860815030805
 20
1514.4999999999998
  0
POINT
  8
_0-9_ADD_LINE
 62
    7
 10
2438.6860815030795
 20
1930.4999999999998
  0
TEXT
  8
_0-9_ADD_LINE
 62
    7
 10
2379.0148032261768
 20
2127.5209662957436
 40
16
 41
1
 50
0
  1
57.5
  0
TEXT
  8
_0-9_ADD_LINE
 62
    7
 10
2351.1827225994834
 20
2127.5209662957436
 40
16
 41
1
 50
0
  1
15
  0
TEXT
  8
_0-9_ADD_LINE
 62
    7
 10
2305.8794088786613
 20
2127.5209662957436
 40
16
 41
1
 50
0
  1
57.5
  0
TEXT
  8
_0-9_ADD_LINE
 62
    7
 10
2279.4694053642806
 20
2127.5209662957436
 40
16
 41
1
 50
0
  1
15
  0
TEXT
  8
_0-9_ADD_LINE
 62
    7
 10
2233.3026876824115
 20
2127.5209662957436
 40
16
 41
1
 50
0
  1
57.5
  0
TEXT
  8
_0-9_ADD_LINE
 62
    7
 10
2205.4706070557181
 20
2127.5209662957436
 40
16
 41
1
 50
0
  1
15
  0
TEXT
  8
_0-9_ADD_LINE
 62
    7
 10
2160.1165048665989
 20
2127.5209662957436
 40
16
 41
1
 50
0
  1
57.5
  0
TEXT
  8
_0-9_ADD_LINE
 62
    7
 10
2133.5541359473277
 20
2127.5209662957436
 40
16
 41
1
 50
0
  1
15
  0
TEXT
  8
_0-9_ADD_LINE
 62
    7
 10
2088.8094953777713
 20
2127.5209662957436
 40
16
 41
1
 50
0
  1
57.5
  0
TEXT
  8
_0-9_ADD_LINE
 62
    7
 10
2060.7742608778904
 20
2127.5209662957436
 40
16
 41
1
 50
0
  1
15
  0
TEXT
  8
_0-9_ADD_LINE
 62
    7
 10
2016.7914473327871
 20
2127.5209662957436
 40
16
 41
1
 50
0
  1
57.5
  0
TEXT
  8
_0-9_ADD_LINE
 62
    7
 10
1987.6854226263135
 20
2127.5209662957436
 40
16
 41
1
 50
0
  1
15
  0
TEXT
  8
_0-9_ADD_LINE
 62
    7
 10
2429.1305888414008
 20
1711.7898455121979
 40
16
 41
1
 50
0
  1
54.2
  0
TEXT
  8
_0-9_ADD_LINE
 62
    7
 10
2403.8379316295518
 20
1712.4440067095459
 40
16
 41
1
 50
0
  1
15
  0
TEXT
  8
_0-9_ADD_LINE
 62
    7
 10
2359.34723340148
 20
1711.7898455121979
 40
16
 41
1
 50
0
  1
54.2
  0
TEXT
  8
_0-9_ADD_LINE
 62
    7
 10
2334.8925859165292
 20
1712.5355376543489
 40
16
 41
1
 50
0
  1
15
  0
TEXT
  8
_0-9_ADD_LINE
 62
    7
 10
2292.3953350691099
 20
1711.7898455121979
 40
16
 41
1
 50
0
  1
54.2
  0
TEXT
  8
_0-9_ADD_LINE
 62
    7
 10
2265.1727160619794
 20
1712.5304748687417
 40
16
 41
1
 50
0
  1
15
  0
TEXT
  8
_0-9_ADD_LINE
 62
    7
 10
2222.2564603511109
 20
1711.7898455121979
 40
16
 41
1
 50
0
  1
54.2
  0
TEXT
  8
_0-9_ADD_LINE
 62
    7
 10
2196.4559184562931
 20
1712.5254120831348
 40
16
 41
1
 50
0
  1
15
  0
TEXT
  8
_0-9_ADD_LINE
 62
    7
 10
2153.1079607649008
 20
1711.7898455121979
 40
16
 41
1
 50
0
  1
54.2
  0
TEXT
  8
_0-9_ADD_LINE
 62
    7
 10
2126.342437972442
 20
1712.5203492975279
 40
16
 41
1
 50
0
  1
15
  0
TEXT
  8
_0-9_ADD_LINE
 62
    7
 10
2084.7974709055893
 20
1711.7898455121979
 40
16
 41
1
 50
0
  1
54.2
  0
TEXT
  8
_0-9_ADD_LINE
 62
    7
 10
2014.2522884412151
 20
1711.7898455121979
 40
16
 41
1
 50
0
  1
54.2
  0
TEXT
  8
_0-9_ADD_LINE
 62
    7
 10
1974.0278215500814
 20
1712.5778962939369
 40
16
 41
1
 50
0
  1
15.3
  0
LINE
  8
_0-9_ADD_LINE
  6
CONTINUOUS
 62
    7
 10
105.92631610445551
 20
2058
 11
105.92631610445551
 21
1997.9999999999998
  0
POINT
  8
_0-9_ADD_LINE
 62
    7
 10
105.92631610445551
 20
2058
  0
POINT
  8
_0-9_ADD_LINE
 62
    7
 10
105.92631610445551
 20
1997.9999999999998
  0
LINE
  8
_0-9_ADD_LINE
  6
CONTINUOUS
 62
    7
 10
105.92631610445551
 20
2058
 11
135.92631610445551
 21
2058
  0
LINE
  8
_0-9_ADD_LINE
  6
CONTINUOUS
 62
    7
 10
105.92631610445551
 20
1997.9999999999998
 11
135.92631610445551
 21
1997.9999999999998
  0
LINE
  8
_0-9_ADD_LINE
  6
CONTINUOUS
 62
    7
 10
165.92631610445505
 20
1938.0000000000018
 11
615.92631610445505
 21
1937.9999999999977
  0
POINT
  8
_0-9_ADD_LINE
 62
    7
 10
165.92631610445505
 20
1938.0000000000018
  0
POINT
  8
_0-9_ADD_LINE
 62
    7
 10
615.92631610445505
 20
1937.9999999999977
  0
LINE
  8
_0-9_ADD_LINE
  6
CONTINUOUS
 62
    7
 10
165.92631610445505
 20
1938.0000000000018
 11
165.92631610445505
 21
1968.0000000000018
  0
LINE
  8
_0-9_ADD_LINE
  6
CONTINUOUS
 62
    7
 10
615.92631610445505
 20
1937.9999999999977
 11
615.92631610445505
 21
1967.9999999999977
  0
TEXT
  8
_0-9_ADD_LINE
 62
    7
 10
371.80131089996985
 20
1939.9750608257918
 40
16
 41
1
 50
0
  1
450
  0
LINE
  8
_0-9_ADD_LINE
  6
CONTINUOUS
 62
    7
 10
165.92631610445551
 20
2118
 11
615.92631610445551
 21
2118
  0
POINT
  8
_0-9_ADD_LINE
 62
    7
 10
165.92631610445551
 20
2118
  0
POINT
  8
_0-9_ADD_LINE
 62
    7
 10
181.92631610445551
 20
2118
  0
LINE
  8
_0-9_ADD_LINE
  6
CONTINUOUS
 62
    7
 10
165.92631610445551
 20
2118
 11
165.92631610445551
 21
2088
  0
LINE
  8
_0-9_ADD_LINE
  6
CONTINUOUS
 62
    7
 10
181.92631610445551
 20
2118
 11
181.92631610445551
 21
2088
  0
TEXT
  8
_0-9_ADD_LINE
 62
    7
 10
164.69210556550433
 20
2119.5234510080736
 40
16
 41
1
 50
0
  1
16
  0
POINT
  8
_0-9_ADD_LINE
 62
    7
 10
239.92631610445596
 20
2118
  0
LINE
  8
_0-9_ADD_LINE
  6
CONTINUOUS
 62
    7
 10
239.92631610445596
 20
2118
 11
239.92631610445596
 21
2088
  0
POINT
  8
_0-9_ADD_LINE
 62
    7
 10
253.92631610445596
 20
2118
  0
LINE
  8
_0-9_ADD_LINE
  6
CONTINUOUS
 62
    7
 10
253.92631610445596
 20
2118
 11
253.92631610445596
 21
2088
  0
TEXT
  8
_0-9_ADD_LINE
 62
    7
 10
237.69210556550524
 20
2119.5234510080736
 40
16
 41
1
 50
0
  1
14
  0
POINT
  8
_0-9_ADD_LINE
 62
    7
 10
311.92631610445596
 20
2118
  0
LINE
  8
_0-9_ADD_LINE
  6
CONTINUOUS
 62
    7
 10
311.92631610445596
 20
2118
 11
311.92631610445596
 21
2088
  0
POINT
  8
_0-9_ADD_LINE
 62
    7
 10
325.92631610445551
 20
2118
  0
LINE
  8
_0-9_ADD_LINE
  6
CONTINUOUS
 62
    7
 10
325.92631610445551
 20
2118
 11
325.92631610445551
 21
2088
  0
TEXT
  8
_0-9_ADD_LINE
 62
    7
 10
309.69210556550524
 20
2119.5234510080736
 40
16
 41
1
 50
0
  1
14
  0
POINT
  8
_0-9_ADD_LINE
 62
    7
 10
383.92631610445596
 20
2118
  0
LINE
  8
_0-9_ADD_LINE
  6
CONTINUOUS
 62
    7
 10
383.92631610445596
 20
2118
 11
383.92631610445596
 21
2088
  0
POINT
  8
_0-9_ADD_LINE
 62
    7
 10
397.92631610445551
 20
2118
  0
LINE
  8
_0-9_ADD_LINE
  6
CONTINUOUS
 62
    7
 10
397.92631610445551
 20
2118
 11
397.92631610445551
 21
2088
  0
TEXT
  8
_0-9_ADD_LINE
 62
    7
 10
381.69210556550479
 20
2119.5234510080736
 40
16
 41
1
 50
0
  1
14
  0
POINT
  8
_0-9_ADD_LINE
 62
    7
 10
455.92631610445551
 20
2118
  0
LINE
  8
_0-9_ADD_LINE
  6
CONTINUOUS
 62
    7
 10
455.92631610445551
 20
2118
 11
455.92631610445551
 21
2088
  0
POINT
  8
_0-9_ADD_LINE
 62
    7
 10
469.92631610445551
 20
2118
  0
LINE
  8
_0-9_ADD_LINE
  6
CONTINUOUS
 62
    7
 10
469.92631610445551
 20
2118
 11
469.92631610445551
 21
2088
  0
TEXT
  8
_0-9_ADD_LINE
 62
    7
 10
453.69210556550479
 20
2119.5234510080736
 40
16
 41
1
 50
0
  1
14
  0
POINT
  8
_0-9_ADD_LINE
 62
    7
 10
527.92631610445596
 20
2118
  0
LINE
  8
_0-9_ADD_LINE
  6
CONTINUOUS
 62
    7
 10
527.92631610445596
 20
2118
 11
527.92631610445596
 21
2088
  0
TEXT
  8
_0-9_ADD_LINE
 62
    7
 10
489.69210556550524
 20
2119.5234510080736
 40
16
 41
1
 50
0
  1
58
  0
POINT
  8
_0-9_ADD_LINE
 62
    7
 10
541.92631610445551
 20
2118
  0
LINE
  8
_0-9_ADD_LINE
  6
CONTINUOUS
 62
    7
 10
541.92631610445551
 20
2118
 11
541.92631610445551
 21
2088
  0
TEXT
  8
_0-9_ADD_LINE
 62
    7
 10
525.69210556550479
 20
2119.5234510080736
 40
16
 41
1
 50
0
  1
14
  0
POINT
  8
_0-9_ADD_LINE
 62
    7
 10
599.92631610445551
 20
2118
  0
LINE
  8
_0-9_ADD_LINE
  6
CONTINUOUS
 62
    7
 10
599.92631610445551
 20
2118
 11
599.92631610445551
 21
2088
  0
POINT
  8
_0-9_ADD_LINE
 62
    7
 10
615.92631610445551
 20
2118
  0
LINE
  8
_0-9_ADD_LINE
  6
CONTINUOUS
 62
    7
 10
615.92631610445551
 20
2118
 11
615.92631610445551
 21
2088
  0
TEXT
  8
_0-9_ADD_LINE
 62
    7
 10
598.69210556550479
 20
2119.5234510080736
 40
16
 41
1
 50
0
  1
16
  0
LINE
  8
_0-9_ADD_LINE
  6
CONTINUOUS
 62
    7
 10
291.3430035080828
 20
2058
 11
291.3430035080828
 21
1997.9999999999998
  0
POINT
  8
_0-9_ADD_LINE
 62
    7
 10
291.3430035080828
 20
2058
  0
POINT
  8
_0-9_ADD_LINE
 62
    7
 10
291.3430035080828
 20
2044.9999999999998
  0
POINT
  8
_0-9_ADD_LINE
 62
    7
 10
291.3430035080828
 20
2010.9999999999998
  0
POINT
  8
_0-9_ADD_LINE
 62
    7
 10
291.3430035080828
 20
1997.9999999999998
  0
LINE
  8
_0-9_ADD_LINE
  6
CONTINUOUS
 62
    7
 10
105.92631610445551
 20
1641.9999999999998
 11
105.92631610445551
 21
1581.9999999999998
  0
POINT
  8
_0-9_ADD_LINE
 62
    7
 10
105.92631610445551
 20
1641.9999999999998
  0
POINT
  8
_0-9_ADD_LINE
 62
    7
 10
105.92631610445551
 20
1581.9999999999998
  0
LINE
  8
_0-9_ADD_LINE
  6
CONTINUOUS
 62
    7
 10
105.92631610445551
 20
1641.9999999999998
 11
135.92631610445551
 21
1641.9999999999998
  0
LINE
  8
_0-9_ADD_LINE
  6
CONTINUOUS
 62
    7
 10
105.92631610445551
 20
1581.9999999999998
 11
135.92631610445551
 21
1581.9999999999998
  0
LINE
  8
_0-9_ADD_LINE
  6
CONTINUOUS
 62
    7
 10
165.92631610445551
 20
1521.9999999999998
 11
665.92631610445562
 21
1521.9999999999998
  0
LINE
  8
_0-9_ADD_LINE
  6
CONTINUOUS
 62
    7
 10
665.92631610445562
 20
1551.9999999999998
 11
665.92631610445562
 21
1521.9999999999998
  0
TEXT
  8
_0-9_ADD_LINE
 62
    7
 10
398.92631610445551
 20
1524.1588037808867
 40
16
 41
1
 50
0
  1
500
  0
LINE
  8
_0-9_ADD_LINE
  6
CONTINUOUS
 62
    7
 10
165.92631610445551
 20
1701.9999999999998
 11
665.92631610445562
 21
1701.9999999999998
  0
POINT
  8
_0-9_ADD_LINE
 62
    7
 10
165.92631610445551
 20
1701.9999999999998
  0
POINT
  8
_0-9_ADD_LINE
 62
    7
 10
179.67631610445551
 20
1701.9999999999998
  0
LINE
  8
_0-9_ADD_LINE
  6
CONTINUOUS
 62
    7
 10
165.92631610445551
 20
1701.9999999999998
 11
165.92631610445551
 21
1671.9999999999998
  0
LINE
  8
_0-9_ADD_LINE
  6
CONTINUOUS
 62
    7
 10
179.67631610445551
 20
1701.9999999999998
 11
179.67631610445551
 21
1671.9999999999998
  0
POINT
  8
_0-9_ADD_LINE
 62
    7
 10
235.17631610445596
 20
1701.9999999999998
  0
LINE
  8
_0-9_ADD_LINE
  6
CONTINUOUS
 62
    7
 10
235.17631610445596
 20
1701.9999999999998
 11
235.17631610445596
 21
1671.9999999999998
  0
POINT
  8
_0-9_ADD_LINE
 62
    7
 10
249.17631610445551
 20
1701.9999999999998
  0
LINE
  8
_0-9_ADD_LINE
  6
CONTINUOUS
 62
    7
 10
249.17631610445551
 20
1701.9999999999998
 11
249.17631610445551
 21
1671.9999999999998
  0
TEXT
  8
_0-9_ADD_LINE
 62
    7
 10
232.98541645820023
 20
1703.4276836481188
 40
16
 41
1
 50
0
  1
14
  0
POINT
  8
_0-9_ADD_LINE
 62
    7
 10
304.67631610445551
 20
1701.9999999999998
  0
LINE
  8
_0-9_ADD_LINE
  6
CONTINUOUS
 62
    7
 10
304.67631610445551
 20
1701.9999999999998
 11
304.67631610445551
 21
1671.9999999999998
  0
POINT
  8
_0-9_ADD_LINE
 62
    7
 10
318.67631610445778
 20
1701.9999999999998
  0
LINE
  8
_0-9_ADD_LINE
  6
CONTINUOUS
 62
    7
 10
318.67631610445778
 20
1701.9999999999998
 11
318.67631610445778
 21
1671.9999999999998
  0
TEXT
  8
_0-9_ADD_LINE
 62
    7
 10
302.4854164582016
 20
1703.4276836481188
 40
16
 41
1
 50
0
  1
14
  0
POINT
  8
_0-9_ADD_LINE
 62
    7
 10
374.17631610445778
 20
1701.9999999999998
  0
LINE
  8
_0-9_ADD_LINE
  6
CONTINUOUS
 62
    7
 10
374.17631610445778
 20
1701.9999999999998
 11
374.17631610445778
 21
1671.9999999999998
  0
POINT
  8
_0-9_ADD_LINE
 62
    7
 10
388.17631610445778
 20
1701.9999999999998
  0
LINE
  8
_0-9_ADD_LINE
  6
CONTINUOUS
 62
    7
 10
388.17631610445778
 20
1701.9999999999998
 11
388.17631610445778
 21
1671.9999999999998
  0
TEXT
  8
_0-9_ADD_LINE
 62
    7
 10
371.98541645820251
 20
1703.4276836481188
 40
16
 41
1
 50
0
  1
14
  0
POINT
  8
_0-9_ADD_LINE
 62
    7
 10
443.67631610445778
 20
1701.9999999999998
  0
LINE
  8
_0-9_ADD_LINE
  6
CONTINUOUS
 62
    7
 10
443.67631610445778
 20
1701.9999999999998
 11
443.67631610445778
 21
1671.9999999999998
  0
POINT
  8
_0-9_ADD_LINE
 62
    7
 10
457.67631610445596
 20
1701.9999999999998
  0
LINE
  8
_0-9_ADD_LINE
  6
CONTINUOUS
 62
    7
 10
457.67631610445596
 20
1701.9999999999998
 11
457.67631610445596
 21
1671.9999999999998
  0
TEXT
  8
_0-9_ADD_LINE
 62
    7
 10
441.4854164582016
 20
1703.4276836481188
 40
16
 41
1
 50
0
  1
14
  0
POINT
  8
_0-9_ADD_LINE
 62
    7
 10
513.17631610445369
 20
1701.9999999999998
  0
LINE
  8
_0-9_ADD_LINE
  6
CONTINUOUS
 62
    7
 10
513.17631610445369
 20
1701.9999999999998
 11
513.17631610445369
 21
1671.9999999999998
  0
POINT
  8
_0-9_ADD_LINE
 62
    7
 10
527.17631610445551
 20
1701.9999999999998
  0
LINE
  8
_0-9_ADD_LINE
  6
CONTINUOUS
 62
    7
 10
527.17631610445551
 20
1701.9999999999998
 11
527.17631610445551
 21
1671.9999999999998
  0
TEXT
  8
_0-9_ADD_LINE
 62
    7
 10
510.98541645819932
 20
1703.4276836481188
 40
16
 41
1
 50
0
  1
14
  0
POINT
  8
_0-9_ADD_LINE
 62
    7
 10
582.67631610445596
 20
1701.9999999999998
  0
LINE
  8
_0-9_ADD_LINE
  6
CONTINUOUS
 62
    7
 10
582.67631610445596
 20
1701.9999999999998
 11
582.67631610445596
 21
1671.9999999999998
  0
POINT
  8
_0-9_ADD_LINE
 62
    7
 10
596.67631610445551
 20
1701.9999999999998
  0
LINE
  8
_0-9_ADD_LINE
  6
CONTINUOUS
 62
    7
 10
596.67631610445551
 20
1701.9999999999998
 11
596.67631610445551
 21
1671.9999999999998
  0
TEXT
  8
_0-9_ADD_LINE
 62
    7
 10
580.48541645820023
 20
1703.4276836481188
 40
16
 41
1
 50
0
  1
14
  0
POINT
  8
_0-9_ADD_LINE
 62
    7
 10
652.17631610445551
 20
1701.9999999999998
  0
LINE
  8
_0-9_ADD_LINE
  6
CONTINUOUS
 62
    7
 10
652.17631610445551
 20
1701.9999999999998
 11
652.17631610445551
 21
1671.9999999999998
  0
POINT
  8
_0-9_ADD_LINE
 62
    7
 10
665.92631610445562
 20
1701.9999999999998
  0
LINE
  8
_0-9_ADD_LINE
  6
CONTINUOUS
 62
    7
 10
665.92631610445562
 20
1701.9999999999998
 11
665.92631610445562
 21
1671.9999999999998
  0
LINE
  8
_0-9_ADD_LINE
  6
CONTINUOUS
 62
    7
 10
291.3430035080828
 20
1641.9999999999998
 11
291.3430035080828
 21
1581.9999999999998
  0
POINT
  8
_0-9_ADD_LINE
 62
    7
 10
291.3430035080828
 20
1641.9999999999998
  0
POINT
  8
_0-9_ADD_LINE
 62
    7
 10
291.3430035080828
 20
1629.0000000000018
  0
POINT
  8
_0-9_ADD_LINE
 62
    7
 10
291.3430035080828
 20
1595.0000000000018
  0
POINT
  8
_0-9_ADD_LINE
 62
    7
 10
291.3430035080828
 20
1581.9999999999998
  0
LINE
  8
_0-9_ADD_LINE
  6
CONTINUOUS
 62
    7
 10
105.92631610445551
 20
1225.9999999999989
 11
105.92631610445551
 21
1165.9999999999989
  0
POINT
  8
_0-9_ADD_LINE
 62
    7
 10
105.92631610445551
 20
1225.9999999999989
  0
POINT
  8
_0-9_ADD_LINE
 62
    7
 10
105.92631610445551
 20
1165.9999999999989
  0
LINE
  8
_0-9_ADD_LINE
  6
CONTINUOUS
 62
    7
 10
105.92631610445551
 20
1225.9999999999989
 11
135.92631610445551
 21
1225.9999999999989
  0
LINE
  8
_0-9_ADD_LINE
  6
CONTINUOUS
 62
    7
 10
105.92631610445551
 20
1165.9999999999989
 11
135.92631610445551
 21
1165.9999999999989
  0
LINE
  8
_0-9_ADD_LINE
  6
CONTINUOUS
 62
    7
 10
165.92631610445551
 20
1105.9999999999989
 11
765.92631610445551
 21
1105.9999999999989
  0
LINE
  8
_0-9_ADD_LINE
  6
CONTINUOUS
 62
    7
 10
765.92631610445551
 20
1135.9999999999989
 11
765.92631610445551
 21
1105.9999999999989
  0
TEXT
  8
_0-9_ADD_LINE
 62
    7
 10
448.92631610445551
 20
1108.3926267498478
 40
16
 41
1
 50
0
  1
600
  0
LINE
  8
_0-9_ADD_LINE
  6
CONTINUOUS
 62
    7
 10
165.92631610445551
 20
1285.9999999999989
 11
765.92631610445551
 21
1285.9999999999989
  0
POINT
  8
_0-9_ADD_LINE
 62
    7
 10
165.92631610445551
 20
1285.9999999999989
  0
POINT
  8
_0-9_ADD_LINE
 62
    7
 10
180.92631610445551
 20
1285.9999999999989
  0
LINE
  8
_0-9_ADD_LINE
  6
CONTINUOUS
 62
    7
 10
165.92631610445551
 20
1285.9999999999989
 11
165.92631610445551
 21
1255.9999999999989
  0
LINE
  8
_0-9_ADD_LINE
  6
CONTINUOUS
 62
    7
 10
180.92631610445551
 20
1285.9999999999989
 11
180.92631610445551
 21
1255.9999999999989
  0
POINT
  8
_0-9_ADD_LINE
 62
    7
 10
239.92631610445551
 20
1285.9999999999989
  0
LINE
  8
_0-9_ADD_LINE
  6
CONTINUOUS
 62
    7
 10
239.92631610445551
 20
1285.9999999999989
 11
239.92631610445551
 21
1255.9999999999989
  0
POINT
  8
_0-9_ADD_LINE
 62
    7
 10
253.92631610445596
 20
1285.9999999999989
  0
LINE
  8
_0-9_ADD_LINE
  6
CONTINUOUS
 62
    7
 10
253.92631610445596
 20
1285.9999999999989
 11
253.92631610445596
 21
1255.9999999999989
  0
POINT
  8
_0-9_ADD_LINE
 62
    7
 10
312.92631610445551
 20
1285.9999999999989
  0
LINE
  8
_0-9_ADD_LINE
  6
CONTINUOUS
 62
    7
 10
312.92631610445551
 20
1285.9999999999989
 11
312.92631610445551
 21
1255.9999999999989
  0
POINT
  8
_0-9_ADD_LINE
 62
    7
 10
326.92631610445551
 20
1285.9999999999989
  0
LINE
  8
_0-9_ADD_LINE
  6
CONTINUOUS
 62
    7
 10
326.92631610445551
 20
1285.9999999999989
 11
326.92631610445551
 21
1255.9999999999989
  0
POINT
  8
_0-9_ADD_LINE
 62
    7
 10
385.92631610445551
 20
1285.9999999999989
  0
LINE
  8
_0-9_ADD_LINE
  6
CONTINUOUS
 62
    7
 10
385.92631610445551
 20
1285.9999999999989
 11
385.92631610445551
 21
1255.9999999999989
  0
POINT
  8
_0-9_ADD_LINE
 62
    7
 10
399.92631610445551
 20
1285.9999999999989
  0
LINE
  8
_0-9_ADD_LINE
  6
CONTINUOUS
 62
    7
 10
399.92631610445551
 20
1285.9999999999989
 11
399.92631610445551
 21
1255.9999999999989
  0
POINT
  8
_0-9_ADD_LINE
 62
    7
 10
458.92631610445596
 20
1285.9999999999989
  0
LINE
  8
_0-9_ADD_LINE
  6
CONTINUOUS
 62
    7
 10
458.92631610445596
 20
1285.9999999999989
 11
458.92631610445596
 21
1255.9999999999989
  0
POINT
  8
_0-9_ADD_LINE
 62
    7
 10
472.92631610445551
 20
1285.9999999999989
  0
LINE
  8
_0-9_ADD_LINE
  6
CONTINUOUS
 62
    7
 10
472.92631610445551
 20
1285.9999999999989
 11
472.92631610445551
 21
1255.9999999999989
  0
POINT
  8
_0-9_ADD_LINE
 62
    7
 10
531.92631610445551
 20
1285.9999999999989
  0
LINE
  8
_0-9_ADD_LINE
  6
CONTINUOUS
 62
    7
 10
531.92631610445551
 20
1285.9999999999989
 11
531.92631610445551
 21
1255.9999999999989
  0
POINT
  8
_0-9_ADD_LINE
 62
    7
 10
545.92631610445551
 20
1285.9999999999989
  0
LINE
  8
_0-9_ADD_LINE
  6
CONTINUOUS
 62
    7
 10
545.92631610445551
 20
1285.9999999999989
 11
545.92631610445551
 21
1255.9999999999989
  0
POINT
  8
_0-9_ADD_LINE
 62
    7
 10
604.92631610445551
 20
1285.9999999999989
  0
LINE
  8
_0-9_ADD_LINE
  6
CONTINUOUS
 62
    7
 10
604.92631610445551
 20
1285.9999999999989
 11
604.92631610445551
 21
1255.9999999999989
  0
POINT
  8
_0-9_ADD_LINE
 62
    7
 10
618.92631610445551
 20
1285.9999999999989
  0
LINE
  8
_0-9_ADD_LINE
  6
CONTINUOUS
 62
    7
 10
618.92631610445551
 20
1285.9999999999989
 11
618.92631610445551
 21
1255.9999999999989
  0
POINT
  8
_0-9_ADD_LINE
 62
    7
 10
677.92631610445551
 20
1285.9999999999989
  0
LINE
  8
_0-9_ADD_LINE
  6
CONTINUOUS
 62
    7
 10
677.92631610445551
 20
1285.9999999999989
 11
677.92631610445551
 21
1255.9999999999989
  0
POINT
  8
_0-9_ADD_LINE
 62
    7
 10
691.92631610445574
 20
1285.9999999999989
  0
LINE
  8
_0-9_ADD_LINE
  6
CONTINUOUS
 62
    7
 10
691.92631610445574
 20
1285.9999999999989
 11
691.92631610445574
 21
1255.9999999999989
  0
POINT
  8
_0-9_ADD_LINE
 62
    7
 10
750.92631610445551
 20
1285.9999999999989
  0
LINE
  8
_0-9_ADD_LINE
  6
CONTINUOUS
 62
    7
 10
750.92631610445551
 20
1285.9999999999989
 11
750.92631610445551
 21
1255.9999999999989
  0
POINT
  8
_0-9_ADD_LINE
 62
    7
 10
765.92631610445551
 20
1285.9999999999989
  0
LINE
  8
_0-9_ADD_LINE
  6
CONTINUOUS
 62
    7
 10
765.92631610445551
 20
1285.9999999999989
 11
765.92631610445551
 21
1255.9999999999989
  0
LINE
  8
_0-9_ADD_LINE
  6
CONTINUOUS
 62
    7
 10
291.3430035080828
 20
1225.9999999999989
 11
291.3430035080828
 21
1165.9999999999989
  0
POINT
  8
_0-9_ADD_LINE
 62
    7
 10
291.3430035080828
 20
1225.9999999999989
  0
POINT
  8
_0-9_ADD_LINE
 62
    7
 10
291.3430035080828
 20
1212.9999999999989
  0
POINT
  8
_0-9_ADD_LINE
 62
    7
 10
291.3430035080828
 20
1178.9999999999989
  0
POINT
  8
_0-9_ADD_LINE
 62
    7
 10
291.3430035080828
 20
1165.9999999999989
  0
TEXT
  8
_0-9_ADD_LINE
 62
    7
 10
649.35236936182355
 20
1703.0307190665658
 40
16
 41
1
 50
0
  1
14
  0
TEXT
  8
_0-9_ADD_LINE
 62
    7
 10
163.49567255869351
 20
1704.3442798875219
 40
16
 41
1
 50
0
  1
14
  0
LINE
  8
_0-9_ADD_LINE
  6
CONTINUOUS
 62
    7
 10
165.92631610445551
 20
1551.9999999999998
 11
165.92631610445551
 21
1521.9999999999998
  0
LINE
  8
_0-9_ADD_LINE
  6
CONTINUOUS
 62
    7
 10
165.92631610445551
 20
1135.9999999999989
 11
165.92631610445551
 21
1105.9999999999989
  0
TEXT
  8
_0-9_ADD_LINE
 62
    7
 10
290.84300350808235
 20
2018.7303789862706
 40
16
 41
1
 50
90
  1
34
  0
TEXT
  8
_0-9_ADD_LINE
 62
    7
 10
290.84300350808235
 20
2044.327767007901
 40
16
 41
1
 50
90
  1
13
  0
TEXT
  8
_0-9_ADD_LINE
 62
    7
 10
290.84300350808235
 20
1997.6023761747661
 40
16
 41
1
 50
90
  1
13
  0
TEXT
  8
_0-9_ADD_LINE
 62
    7
 10
290.84300350808235
 20
1628.3194231881093
 40
16
 41
1
 50
90
  1
13
  0
TEXT
  8
_0-9_ADD_LINE
 62
    7
 10
290.84300350808235
 20
1604.1441122787919
 40
16
 41
1
 50
90
  1
34
  0
TEXT
  8
_0-9_ADD_LINE
 62
    7
 10
290.84300350808235
 20
1581.1877246085994
 40
16
 41
1
 50
90
  1
13
  0
TEXT
  8
_0-9_ADD_LINE
 62
    7
 10
105.42631610445551
 20
2021.2221882120862
 40
16
 41
1
 50
90
  1
60
  0
TEXT
  8
_0-9_ADD_LINE
 62
    7
 10
290.84300350808235
 20
1212.1031640762274
 40
16
 41
1
 50
90
  1
13
  0
TEXT
  8
_0-9_ADD_LINE
 62
    7
 10
290.84300350808235
 20
1165.7840809894674
 40
16
 41
1
 50
90
  1
13
  0
TEXT
  8
_0-9_ADD_LINE
 62
    7
 10
290.84300350808235
 20
1187.7246992937221
 40
16
 41
1
 50
90
  1
34
  0
TEXT
  8
_0-9_ADD_LINE
 62
    7
 10
104.47719891954057
 20
1602.5008055363455
 40
16
 41
1
 50
90
  1
60
  0
TEXT
  8
_0-9_ADD_LINE
 62
    7
 10
104.58175369688706
 20
1187.3061353023936
 40
16
 41
1
 50
90
  1
60
  0
POINT
  8
_0-9_ADD_LINE
 62
    7
 10
665.92631610445562
 20
1521.9999999999998
  0
POINT
  8
_0-9_ADD_LINE
 62
    7
 10
765.9263161044554
 20
1105.9999999999989
  0
POINT
  8
_0-9_ADD_LINE
 62
    7
 10
165.92631610445551
 20
1105.9999999999989
  0
POINT
  8
_0-9_ADD_LINE
 62
    7
 10
165.92631610445551
 20
1521.9999999999998
  0
TEXT
  8
_0-9_ADD_LINE
 62
    7
 10
204.25259075352551
 20
2119.5234510080736
 40
16
 41
1
 50
0
  1
58
  0
TEXT
  8
_0-9_ADD_LINE
 62
    7
 10
275.10250402768133
 20
2119.5234510080736
 40
16
 41
1
 50
0
  1
58
  0
TEXT
  8
_0-9_ADD_LINE
 62
    7
 10
347.32370594585291
 20
2119.5234510080736
 40
16
 41
1
 50
0
  1
58
  0
TEXT
  8
_0-9_ADD_LINE
 62
    7
 10
418.02125381511814
 20
2119.5234510080736
 40
16
 41
1
 50
0
  1
58
  0
TEXT
  8
_0-9_ADD_LINE
 62
    7
 10
564.29204251014926
 20
2119.5234510080736
 40
16
 41
1
 50
0
  1
58
  0
TEXT
  8
_0-9_ADD_LINE
 62
    7
 10
192.04431268666212
 20
1703.4276836481188
 40
16
 41
1
 50
0
  1
55.5
  0
TEXT
  8
_0-9_ADD_LINE
 62
    7
 10
258.67878309217622
 20
1703.4276836481188
 40
16
 41
1
 50
0
  1
55.5
  0
TEXT
  8
_0-9_ADD_LINE
 62
    7
 10
330.92537924449653
 20
1703.4276836481188
 40
16
 41
1
 50
0
  1
55.5
  0
TEXT
  8
_0-9_ADD_LINE
 62
    7
 10
406.80335088004404
 20
1703.4276836481188
 40
16
 41
1
 50
0
  1
55
  0
TEXT
  8
_0-9_ADD_LINE
 62
    7
 10
467.74951283630708
 20
1703.4276836481188
 40
16
 41
1
 50
0
  1
55.5
  0
TEXT
  8
_0-9_ADD_LINE
 62
    7
 10
538.52324340801715
 20
1703.4276836481188
 40
16
 41
1
 50
0
  1
55.5
  0
TEXT
  8
_0-9_ADD_LINE
 62
    7
 10
611.43008964819683
 20
1703.0307190665658
 40
16
 41
1
 50
0
  1
55.5
  0
TEXT
  8
_0-9_ADD_LINE
 62
    7
 10
713.58157078957686
 20
1287.6111172517708
 40
16
 41
1
 50
0
  1
59
  0
TEXT
  8
_0-9_ADD_LINE
 62
    7
 10
639.5319840127172
 20
1287.6111172517708
 40
16
 41
1
 50
0
  1
59
  0
TEXT
  8
_0-9_ADD_LINE
 62
    7
 10
749.92071985599864
 20
1287.6111172517708
 40
16
 41
1
 50
0
  1
15
  0
TEXT
  8
_0-9_ADD_LINE
 62
    7
 10
675.36324839617032
 20
1287.6111172517708
 40
16
 41
1
 50
0
  1
14
  0
TEXT
  8
_0-9_ADD_LINE
 62
    7
 10
603.59914269267074
 20
1287.6111172517708
 40
16
 41
1
 50
0
  1
14
  0
TEXT
  8
_0-9_ADD_LINE
 62
    7
 10
567.04414263598755
 20
1287.6111172517708
 40
16
 41
1
 50
0
  1
59
  0
TEXT
  8
_0-9_ADD_LINE
 62
    7
 10
530.88275320860475
 20
1287.6111172517708
 40
16
 41
1
 50
0
  1
14
  0
TEXT
  8
_0-9_ADD_LINE
 62
    7
 10
495.53397927397236
 20
1287.6111172517708
 40
16
 41
1
 50
0
  1
59
  0
TEXT
  8
_0-9_ADD_LINE
 62
    7
 10
458.05208967087037
 20
1287.6111172517708
 40
16
 41
1
 50
0
  1
14
  0
TEXT
  8
_0-9_ADD_LINE
 62
    7
 10
421.17966168733165
 20
1287.6111172517708
 40
16
 41
1
 50
0
  1
59
  0
TEXT
  8
_0-9_ADD_LINE
 62
    7
 10
384.76432991846468
 20
1287.6111172517708
 40
16
 41
1
 50
0
  1
14
  0
TEXT
  8
_0-9_ADD_LINE
 62
    7
 10
346.82534410069047
 20
1287.6111172517708
 40
16
 41
1
 50
0
  1
59
  0
TEXT
  8
_0-9_ADD_LINE
 62
    7
 10
311.83208944413627
 20
1287.6111172517708
 40
16
 41
1
 50
0
  1
14
  0
TEXT
  8
_0-9_ADD_LINE
 62
    7
 10
276.17858469972271
 20
1287.6111172517708
 40
16
 41
1
 50
0
  1
59
  0
TEXT
  8
_0-9_ADD_LINE
 62
    7
 10
239.00142590640189
 20
1287.6111172517708
 40
16
 41
1
 50
0
  1
14
  0
TEXT
  8
_0-9_ADD_LINE
 62
    7
 10
203.57646926932421
 20
1287.6111172517708
 40
16
 41
1
 50
0
  1
59
  0
TEXT
  8
_0-9_ADD_LINE
 62
    7
 10
165.43432957836285
 20
1287.6111172517708
 40
16
 41
1
 50
0
  1
15
  0
TEXT
  8
_0-a_
 62
    7
 10
3228.3798826993111
 20
121.99999999999977
 40
28
 41
1
 50
0
  1
S-5-2
  0
ENDSEC
  0
EOF
