  0
SECTION
  2
HEADER
  9
$ACADVER
  1
AC1009
  9
$INSBASE
 10
0
 20
0
 30
0
  9
$EXTMIN
 10
0
 20
0
  9
$EXTMAX
 10
3360
 20
2376
  9
$LIMMIN
 10
0
 20
0
  9
$LIMMAX
 10
3360
 20
2376
  9
$LTSCALE
 40
8
  0
ENDSEC
  0
SECTION
  2
TABLES
  0
TABLE
  2
LTYPE
 70
     9
  0
LTYPE
  2
CONTINUOUS
 70
    64
  3
実線
 72
    65
 73
     0
 40
0.0
  0
LTYPE
  2
DASHED1
 70
    64
  3
--  --  --  --  --  --  --  --  
 72
    65
 73
     2
 40
2.5
 49
1.25
 49
-1.25
  0
LTYPE
  2
DASHED2
 70
    64
  3
----    ----    ----    ----    
 72
    65
 73
     2
 40
5.0
 49
2.5
 49
-2.5
  0
LTYPE
  2
DASHED3
 70
    64
  3
------  ------  ------  ------  
 72
    65
 73
     2
 40
5.0
 49
3.75
 49
-1.25
  0
LTYPE
  2
CENTER1
 70
    64
  3
----- - ----- - ----- - ----- - 
 72
    65
 73
     4
 40
10.0
 49
6.25
 49
-1.25
 49
1.25
 49
-1.25
  0
LTYPE
  2
CENTER2
 70
    64
  3
----------  --  ----------  --  
 72
    65
 73
     4
 40
20.0
 49
12.5
 49
-2.5
 49
2.5
 49
-2.5
  0
LTYPE
  2
PHANTOM1
 70
    64
  3
--- - - --- - - --- - - --- - - 
 72
    65
 73
     6
 40
10.0
 49
3.25
 49
-1.25
 49
1.25
 49
-1.25
 49
1.25
 49
-1.25
  0
LTYPE
  2
PHANTOM2
 70
    64
  3
--------  -  -  --------  -  -  
 72
    65
 73
     6
 40
20.0
 49
10.0
 49
-2.5
 49
1.25
 49
-2.5
 49
1.25
 49
-2.5
  0
LTYPE
  2
DOT
 70
    64
  3
-   -   -   -   -   -   -   -   
 72
    65
 73
     2
 40
2.5
 49
0.625
 49
-1.875
  0
LTYPE
  2
DUMMY
 70
    64
  3
ダミー
 72
    65
 73
     0
 40
0.0
  0
LTYPE
  2
RAND1
 70
    64
  3
ランダム線1
 72
    65
 73
     4
 40
10.0
 49
1.0
 49
-2.0
 49
3.0
 49
-4.0
  0
LTYPE
  2
RAND2
 70
    64
  3
ランダム線2
 72
    65
 73
     4
 40
14.0
 49
2.0
 49
-3.0
 49
4.0
 49
-5.0
  0
LTYPE
  2
RAND3
 70
    64
  3
ランダム線3
 72
    65
 73
     4
 40
18.0
 49
3.0
 49
-4.0
 49
5.0
 49
-6.0
  0
LTYPE
  2
RAND4
 70
    64
  3
ランダム線4
 72
    65
 73
     4
 40
22.0
 49
4.0
 49
-5.0
 49
6.0
 49
-7.0
  0
LTYPE
  2
RAND5
 70
    64
  3
ランダム線5
 72
    65
 73
     4
 40
26.0
 49
5.0
 49
-6.0
 49
7.0
 49
-8.0
  0
LTYPE
  2
LONG1
 70
    64
  3
----------  --  ----------  --  
 72
    65
 73
     4
 40
40.0
 49
32.5
 49
-2.5
 49
2.5
 49
-2.5
  0
LTYPE
  2
LONG2
 70
    64
  3
--------  -  -  --------  -  -  
 72
    65
 73
     6
 40
40.0
 49
30.0
 49
-2.5
 49
1.25
 49
-2.5
 49
1.25
 49
-2.5
  0
LTYPE
  2
LONG3
 70
    64
  3
+++++++++++++++..+++++++++++++++
 72
    65
 73
     2
 40
40.0
 49
37.5
 49
-2.5
  0
LTYPE
  2
LONG4
 70
    64
  3
+++++++++++++++..+++++++++++++++
 72
    65
 73
     2
 40
80.0
 49
75.0
 49
-5.0
  0
LTYPE
  2
LONG5
 70
    64
  3
----------  --  ----------  --  
 72
    65
 73
     4
 40
60.0
 49
37.5
 49
-7.5
 49
7.5
 49
-7.5
  0
LTYPE
  2
dashed
 70
   64
  3
-------   -------------   ------
 72
   65
 73
    2
 40
7.5
 49
6
 49
-1.5
  0
LTYPE
  2
dashed_spaced
 70
   64
  3
----        --------        ----
 72
   65
 73
    2
 40
12
 49
6
 49
-6
  0
LTYPE
  2
long_dashed_dotted
 70
   64
  3
------------- --- --------------
 72
   65
 73
    4
 40
15.25
 49
12
 49
-1.5
 49
0.25
 49
-1.5
  0
LTYPE
  2
long_dashed_double-dotted
 70
   64
  3
----------- --- --- ------------
 72
   65
 73
    6
 40
17
 49
12
 49
-1.5
 49
0.25
 49
-1.5
 49
0.25
 49
-1.5
  0
LTYPE
  2
long_dashed_triplicate-dotted
 70
   64
  3
--------- --- --- --- ----------
 72
   65
 73
    8
 40
18.75
 49
12
 49
-1.5
 49
0.25
 49
-1.5
 49
0.25
 49
-1.5
 49
0.25
 49
-1.5
  0
LTYPE
  2
dotted
 70
   64
  3
   -       -       -       -    
 72
   65
 73
    2
 40
1.75
 49
0.25
 49
-1.5
  0
LTYPE
  2
chain
 70
   64
  3
-------------- -- --------------
 72
   65
 73
    4
 40
18.5
 49
12
 49
-1.5
 49
3.5
 49
-1.5
  0
LTYPE
  2
chain_double_dash
 70
   64
  3
------------ -- -- -------------
 72
   65
 73
    6
 40
23.5
 49
12
 49
-1.5
 49
3.5
 49
-1.5
 49
3.5
 49
-1.5
  0
LTYPE
  2
dashed_dotted
 70
   64
  3
-----------     -     ----------
 72
   65
 73
    4
 40
9.25
 49
6
 49
-1.5
 49
0.25
 49
-1.5
  0
LTYPE
  2
double-dashed_dotted
 70
   64
  3
------   -----------   -   -----
 72
   65
 73
    6
 40
16.75
 49
6
 49
-1.5
 49
6
 49
-1.5
 49
0.25
 49
-1.5
  0
LTYPE
  2
dashed_double-dotted
 70
   64
  3
---------    -    -    ---------
 72
   65
 73
    6
 40
11
 49
6
 49
-1.5
 49
0.25
 49
-1.5
 49
0.25
 49
-1.5
  0
LTYPE
  2
double-dashed_double-dotted
 70
   64
  3
-----   ---------   -   -   ----
 72
   65
 73
    8
 40
18.5
 49
6
 49
-1.5
 49
6
 49
-1.5
 49
0.25
 49
-1.5
 49
0.25
 49
-1.5
  0
LTYPE
  2
dashed_triplicate-dotted
 70
   64
  3
-------    -    -    -    ------
 72
   65
 73
    8
 40
12.75
 49
6
 49
-1.5
 49
0.25
 49
-1.5
 49
0.25
 49
-1.5
 49
0.25
 49
-1.5
  0
LTYPE
  2
double-dashed_triplicate-dotted
 70
   64
  3
-----  ---------  -  -  -  -----
 72
   65
 73
   10
 40
20.25
 49
6
 49
-1.5
 49
6
 49
-1.5
 49
0.25
 49
-1.5
 49
0.25
 49
-1.5
 49
0.25
 49
-1.5
  0
LTYPE
  2
undefined
 70
   64
  3
--------------------------------
 72
   65
 73
    0
 40
0
  0
LTYPE
  2
_
 70
   64
  3
                                
 72
   65
 73
    0
 40
0
  0
LTYPE
  2
__18
 70
   64
  3
                                
 72
   65
 73
    0
 40
0
  0
LTYPE
  2
__19
 70
   64
  3
                                
 72
   65
 73
    0
 40
0
  0
LTYPE
  2
__20
 70
   64
  3
                                
 72
   65
 73
    0
 40
0
  0
LTYPE
  2
__21
 70
   64
  3
                                
 72
   65
 73
    0
 40
0
  0
LTYPE
  2
__22
 70
   64
  3
                                
 72
   65
 73
    0
 40
0
  0
LTYPE
  2
__23
 70
   64
  3
                                
 72
   65
 73
    0
 40
0
  0
LTYPE
  2
__24
 70
   64
  3
                                
 72
   65
 73
    0
 40
0
  0
LTYPE
  2
__25
 70
   64
  3
                                
 72
   65
 73
    0
 40
0
  0
LTYPE
  2
__26
 70
   64
  3
                                
 72
   65
 73
    0
 40
0
  0
LTYPE
  2
__27
 70
   64
  3
                                
 72
   65
 73
    0
 40
0
  0
LTYPE
  2
__28
 70
   64
  3
                                
 72
   65
 73
    0
 40
0
  0
LTYPE
  2
__29
 70
   64
  3
                                
 72
   65
 73
    0
 40
0
  0
LTYPE
  2
__30
 70
   64
  3
                                
 72
   65
 73
    0
 40
0
  0
LTYPE
  2
__31
 70
   64
  3
                                
 72
   65
 73
    0
 40
0
  0
LTYPE
  2
__32
 70
   64
  3
                                
 72
   65
 73
    0
 40
0
  0
ENDTAB
  0
TABLE
  2
STYLE
  5
3
100
AcDbSymbolTable
 70
     1
  0
STYLE
  5
10
100
AcDbSymbolTableRecord
100
AcDbTextStyleTableRecord
  2
STANDARD
 70
     0
 40
0.0
 41
1.0
 50
0.0
 71
     0
 42
0.2
  3
txt
  4
bigfont.shx
  0
STYLE
  5
26
100
AcDbSymbolTableRecord
100
AcDbTextStyleTableRecord
  2
TATEGAKI
 70
    68
 40
0.0
 41
1.0
 50
0.0
 71
     0
 42
1.0
  3
txt
  4
bigfont.shx
  0
ENDTAB
  0
TABLE
  2
LAYER
 70
    4
  0
LAYER
  2
_0-0_1
 70
   64
 62
    7
  6
CONTINUOUS
  0
LAYER
  2
_0-9__0-2_LAY
 70
   64
 62
    7
  6
CONTINUOUS
  0
LAYER
  2
_0-a__0-0_
 70
   64
 62
    7
  6
CONTINUOUS
  0
LAYER
  2
ADD_LINE
 70
   64
 62
    7
  6
CONTINUOUS
  0
ENDTAB
  0
ENDSEC
  0
SECTION
  2
BLOCKS
  0
ENDSEC
  0
SECTION
  2
ENTITIES
  0
LINE
  8
ADD_LINE
  6
DOT
 62
    7
 10
-6.6892229025850156
 20
2364
 11
-6.6892229025850156
 21
11.999999999999773
  0
LINE
  8
ADD_LINE
  6
DOT
 62
    7
 10
1641.3107770974152
 20
2364
 11
1641.3107770974152
 21
11.999999999999773
  0
LINE
  8
ADD_LINE
  6
DOT
 62
    7
 10
-6.6892229025850156
 20
2364
 11
1641.3107770974152
 21
2364
  0
LINE
  8
ADD_LINE
  6
DOT
 62
    7
 10
-6.6892229025850156
 20
11.999999999999773
 11
1641.3107770974152
 21
11.999999999999773
  0
LINE
  8
ADD_LINE
  6
DOT
 62
    7
 10
1718.6892229025852
 20
2364
 11
1718.6892229025852
 21
11.999999999999773
  0
LINE
  8
ADD_LINE
  6
DOT
 62
    7
 10
3366.6892229025852
 20
2364
 11
3366.6892229025852
 21
11.999999999999773
  0
LINE
  8
ADD_LINE
  6
DOT
 62
    7
 10
1718.6892229025852
 20
2364
 11
3366.6892229025852
 21
2364
  0
LINE
  8
ADD_LINE
  6
DOT
 62
    7
 10
1718.6892229025852
 20
11.999999999999773
 11
3366.6892229025852
 21
11.999999999999773
  0
TEXT
  8
_0-a__0-0_
 62
    7
 10
1454.3107770974152
 20
121.99999999999977
 40
28
 41
1
 50
0
  1
S-2-1
  0
LINE
  8
_0-0_1
  6
CONTINUOUS
 62
    2
 10
276.95146468034
 20
2029.8149571552012
 11
248.95151968033997
 21
2057.8149021551999
  0
LINE
  8
_0-0_1
  6
CONTINUOUS
 62
    2
 10
774.61689090118364
 20
2032.9362674987601
 11
774.61689090118364
 21
2058.9362324987601
  0
LINE
  8
_0-0_1
  6
CONTINUOUS
 62
    2
 10
791.61682590118323
 20
2061.9362324987601
 11
777.61689090118352
 21
2061.9362324987601
  0
LINE
  8
_0-0_1
  6
CONTINUOUS
 62
    2
 10
791.61682590118323
 20
2029.93625249876
 11
777.61689090118352
 21
2029.93625249876
  0
LINE
  8
_0-0_1
  6
CONTINUOUS
 62
    2
 10
794.61697590118354
 20
2073.9362024987604
 11
794.61697590118354
 21
2064.9362474987602
  0
LINE
  8
_0-0_1
  6
CONTINUOUS
 62
    2
 10
792.61687590118345
 20
2075.9362424987603
 11
794.61697590118354
 21
2073.9362024987604
  0
LINE
  8
_0-0_1
  6
CONTINUOUS
 62
    2
 10
794.61697590118354
 20
2017.93629749876
 11
794.61697590118354
 21
2026.93625249876
  0
LINE
  8
_0-0_1
  6
CONTINUOUS
 62
    2
 10
794.61697590118354
 20
2017.93629749876
 11
792.61687590118345
 21
2015.9362574987601
  0
LINE
  8
_0-0_1
  6
CONTINUOUS
 62
    2
 10
758.6168559011835
 20
2062.9362224987599
 11
709.61686590118359
 21
2062.9362224987599
  0
LINE
  8
_0-0_1
  6
CONTINUOUS
 62
    2
 10
761.61687090118357
 20
2031.9362924987602
 11
761.61687090118357
 21
2059.9362074987603
  0
LINE
  8
_0-0_1
  6
CONTINUOUS
 62
    2
 10
706.61686590118359
 20
2031.9362924987602
 11
706.61686590118359
 21
2059.9362074987603
  0
LINE
  8
_0-0_1
  6
CONTINUOUS
 62
    2
 10
709.61686590118359
 20
2028.9362774987601
 11
758.6168559011835
 21
2028.9362774987601
  0
LINE
  8
_0-0_1
  6
CONTINUOUS
 62
    2
 10
690.6168309011839
 20
2062.9362224987599
 11
641.61684090118342
 21
2062.9362224987599
  0
LINE
  8
_0-0_1
  6
CONTINUOUS
 62
    2
 10
693.61684590118341
 20
2031.9362924987602
 11
693.61684590118341
 21
2059.9362074987603
  0
LINE
  8
_0-0_1
  6
CONTINUOUS
 62
    2
 10
638.61684090118342
 20
2031.9362924987602
 11
638.61684090118342
 21
2059.9362074987603
  0
LINE
  8
_0-0_1
  6
CONTINUOUS
 62
    2
 10
641.61684090118342
 20
2028.9362774987601
 11
690.6168309011839
 21
2028.9362774987601
  0
LINE
  8
_0-0_1
  6
CONTINUOUS
 62
    2
 10
622.61688090118332
 20
2062.9362224987599
 11
573.61689090118352
 21
2062.9362224987599
  0
LINE
  8
_0-0_1
  6
CONTINUOUS
 62
    2
 10
625.6168959011834
 20
2031.9362924987602
 11
625.6168959011834
 21
2059.9362074987603
  0
LINE
  8
_0-0_1
  6
CONTINUOUS
 62
    2
 10
570.61689090118352
 20
2031.9362924987602
 11
570.61689090118352
 21
2059.9362074987603
  0
LINE
  8
_0-0_1
  6
CONTINUOUS
 62
    2
 10
573.61689090118352
 20
2028.9362774987601
 11
622.61688090118332
 21
2028.9362774987601
  0
LINE
  8
_0-0_1
  6
CONTINUOUS
 62
    2
 10
554.6168559011835
 20
2062.9362224987599
 11
505.6168659011837
 21
2062.9362224987599
  0
LINE
  8
_0-0_1
  6
CONTINUOUS
 62
    2
 10
557.61687090118357
 20
2031.9362924987602
 11
557.61687090118357
 21
2059.9362074987603
  0
LINE
  8
_0-0_1
  6
CONTINUOUS
 62
    2
 10
502.6168659011837
 20
2031.9362924987602
 11
502.6168659011837
 21
2059.9362074987603
  0
LINE
  8
_0-0_1
  6
CONTINUOUS
 62
    2
 10
505.6168659011837
 20
2028.9362774987601
 11
554.6168559011835
 21
2028.9362774987601
  0
LINE
  8
_0-0_1
  6
CONTINUOUS
 62
    2
 10
486.6169059011836
 20
2062.9362224987599
 11
437.61691590118335
 21
2062.9362224987599
  0
LINE
  8
_0-0_1
  6
CONTINUOUS
 62
    2
 10
489.61692090118322
 20
2031.9362924987602
 11
489.61692090118322
 21
2059.9362074987603
  0
LINE
  8
_0-0_1
  6
CONTINUOUS
 62
    2
 10
434.61690090118373
 20
2031.9362924987602
 11
434.61690090118373
 21
2059.9362074987603
  0
LINE
  8
_0-0_1
  6
CONTINUOUS
 62
    2
 10
437.61691590118335
 20
2028.9362774987601
 11
486.6169059011836
 21
2028.9362774987601
  0
LINE
  8
_0-0_1
  6
CONTINUOUS
 62
    2
 10
418.61688090118332
 20
2062.9362224987599
 11
369.61689090118352
 21
2062.9362224987599
  0
LINE
  8
_0-0_1
  6
CONTINUOUS
 62
    2
 10
421.6168959011834
 20
2031.9362924987602
 11
421.6168959011834
 21
2059.9362074987603
  0
LINE
  8
_0-0_1
  6
CONTINUOUS
 62
    2
 10
366.61687590118345
 20
2031.9362924987602
 11
366.61687590118345
 21
2059.9362074987603
  0
LINE
  8
_0-0_1
  6
CONTINUOUS
 62
    2
 10
369.61689090118352
 20
2028.9362774987601
 11
418.61688090118332
 21
2028.9362774987601
  0
LINE
  8
_0-0_1
  6
CONTINUOUS
 62
    2
 10
350.61693090118342
 20
2062.9362224987599
 11
301.61694090118363
 21
2062.9362224987599
  0
LINE
  8
_0-0_1
  6
CONTINUOUS
 62
    2
 10
353.61693090118342
 20
2031.9362924987602
 11
353.61693090118342
 21
2059.9362074987603
  0
LINE
  8
_0-0_1
  6
CONTINUOUS
 62
    2
 10
298.6168959011834
 20
2031.9362924987602
 11
298.6168959011834
 21
2059.9362074987603
  0
LINE
  8
_0-0_1
  6
CONTINUOUS
 62
    2
 10
301.61694090118363
 20
2028.9362774987601
 11
350.61693090118342
 21
2028.9362774987601
  0
ARC
  8
_0-0_1
  6
CONTINUOUS
 62
    2
 10
777.61689090118352
 20
2058.9362324987601
 40
3
 50
90
 51
180
  0
ARC
  8
_0-0_1
  6
CONTINUOUS
 62
    2
 10
777.61689090118352
 20
2032.9362674987601
 40
3
 50
180
 51
270
  0
ARC
  8
_0-0_1
  6
CONTINUOUS
 62
    2
 10
791.61682590118323
 20
2064.9362474987602
 40
3
 50
270
 51
0
  0
ARC
  8
_0-0_1
  6
CONTINUOUS
 62
    2
 10
791.61682590118323
 20
2026.93625249876
 40
3
 50
0
 51
90
  0
ARC
  8
_0-0_1
  6
CONTINUOUS
 62
    2
 10
709.61686590118359
 20
2059.9362074987603
 40
3
 50
90
 51
180
  0
ARC
  8
_0-0_1
  6
CONTINUOUS
 62
    2
 10
758.6168559011835
 20
2059.9362074987603
 40
3
 50
0
 51
90
  0
ARC
  8
_0-0_1
  6
CONTINUOUS
 62
    2
 10
758.6168559011835
 20
2031.9362924987602
 40
3
 50
270
 51
0
  0
ARC
  8
_0-0_1
  6
CONTINUOUS
 62
    2
 10
709.61686590118359
 20
2031.9362924987602
 40
3
 50
180
 51
270
  0
ARC
  8
_0-0_1
  6
CONTINUOUS
 62
    2
 10
641.61684090118342
 20
2059.9362074987603
 40
3
 50
90
 51
180
  0
ARC
  8
_0-0_1
  6
CONTINUOUS
 62
    2
 10
690.6168309011839
 20
2059.9362074987603
 40
3
 50
0
 51
90
  0
ARC
  8
_0-0_1
  6
CONTINUOUS
 62
    2
 10
690.6168309011839
 20
2031.9362924987602
 40
3
 50
270
 51
0
  0
ARC
  8
_0-0_1
  6
CONTINUOUS
 62
    2
 10
641.61684090118342
 20
2031.9362924987602
 40
3
 50
180
 51
270
  0
ARC
  8
_0-0_1
  6
CONTINUOUS
 62
    2
 10
573.61689090118352
 20
2059.9362074987603
 40
3
 50
90
 51
180
  0
ARC
  8
_0-0_1
  6
CONTINUOUS
 62
    2
 10
622.61688090118332
 20
2059.9362074987603
 40
3
 50
0
 51
90
  0
ARC
  8
_0-0_1
  6
CONTINUOUS
 62
    2
 10
622.61688090118332
 20
2031.9362924987602
 40
3
 50
270
 51
0
  0
ARC
  8
_0-0_1
  6
CONTINUOUS
 62
    2
 10
573.61689090118352
 20
2031.9362924987602
 40
3
 50
180
 51
270
  0
ARC
  8
_0-0_1
  6
CONTINUOUS
 62
    2
 10
505.6168659011837
 20
2059.9362074987603
 40
3
 50
90
 51
180
  0
ARC
  8
_0-0_1
  6
CONTINUOUS
 62
    2
 10
554.6168559011835
 20
2059.9362074987603
 40
3
 50
0
 51
90
  0
ARC
  8
_0-0_1
  6
CONTINUOUS
 62
    2
 10
554.6168559011835
 20
2031.9362924987602
 40
3
 50
270
 51
0
  0
ARC
  8
_0-0_1
  6
CONTINUOUS
 62
    2
 10
505.6168659011837
 20
2031.9362924987602
 40
3
 50
180
 51
270
  0
ARC
  8
_0-0_1
  6
CONTINUOUS
 62
    2
 10
437.61691590118335
 20
2059.9362074987603
 40
3
 50
90
 51
180
  0
ARC
  8
_0-0_1
  6
CONTINUOUS
 62
    2
 10
486.6169059011836
 20
2059.9362074987603
 40
3
 50
0
 51
90
  0
ARC
  8
_0-0_1
  6
CONTINUOUS
 62
    2
 10
486.6169059011836
 20
2031.9362924987602
 40
3
 50
270
 51
0
  0
ARC
  8
_0-0_1
  6
CONTINUOUS
 62
    2
 10
437.61691590118335
 20
2031.9362924987602
 40
3
 50
180
 51
270
  0
ARC
  8
_0-0_1
  6
CONTINUOUS
 62
    2
 10
369.61689090118352
 20
2059.9362074987603
 40
3
 50
90
 51
180
  0
ARC
  8
_0-0_1
  6
CONTINUOUS
 62
    2
 10
418.61688090118332
 20
2059.9362074987603
 40
3
 50
0
 51
90
  0
ARC
  8
_0-0_1
  6
CONTINUOUS
 62
    2
 10
418.61688090118332
 20
2031.9362924987602
 40
3
 50
270
 51
0
  0
ARC
  8
_0-0_1
  6
CONTINUOUS
 62
    2
 10
369.61689090118352
 20
2031.9362924987602
 40
3
 50
180
 51
270
  0
ARC
  8
_0-0_1
  6
CONTINUOUS
 62
    2
 10
301.61694090118363
 20
2059.9362074987603
 40
3
 50
90
 51
180
  0
ARC
  8
_0-0_1
  6
CONTINUOUS
 62
    2
 10
350.61693090118342
 20
2059.9362074987603
 40
3
 50
0
 51
90
  0
ARC
  8
_0-0_1
  6
CONTINUOUS
 62
    2
 10
350.61693090118342
 20
2031.9362924987602
 40
3
 50
270
 51
0
  0
ARC
  8
_0-0_1
  6
CONTINUOUS
 62
    2
 10
301.61694090118363
 20
2031.9362924987602
 40
3
 50
180
 51
270
  0
ARC
  8
_0-0_1
  6
CONTINUOUS
 62
    2
 10
282.6169059011836
 20
2059.9362074987603
 40
3
 50
0
 51
90
  0
LINE
  8
_0-0_1
  6
CONTINUOUS
 62
    2
 10
216.61697590118365
 20
2075.9362424987603
 11
792.61687590118345
 21
2075.9362424987603
  0
LINE
  8
_0-0_1
  6
CONTINUOUS
 62
    2
 10
216.61697590118365
 20
2075.9362424987603
 11
214.61697590118365
 21
2073.9362424987603
  0
LINE
  8
_0-0_1
  6
CONTINUOUS
 62
    2
 10
214.61697590118365
 20
2073.9362424987603
 11
214.61697590118365
 21
2070.9362424987603
  0
LINE
  8
_0-0_1
  6
CONTINUOUS
 62
    2
 10
792.61687590118345
 20
2015.9362574987601
 11
269.61696090118357
 21
2015.9362574987601
  0
LINE
  8
_0-0_1
  6
CONTINUOUS
 62
    2
 10
259.61697590118365
 20
2028.7646696235061
 11
259.61697590118365
 21
2025.9362424987601
  0
LINE
  8
_0-0_1
  6
CONTINUOUS
 62
    2
 10
242.44540302592986
 20
2045.9362424987601
 11
259.61697590118365
 21
2028.7646696235061
  0
LINE
  8
_0-0_1
  6
CONTINUOUS
 62
    2
 10
239.61697590118365
 20
2045.9362424987601
 11
242.44540302592986
 21
2045.9362424987601
  0
LINE
  8
_0-0_1
  6
CONTINUOUS
 62
    2
 10
285.6169059011836
 20
2031.9362774987601
 11
285.6169059011836
 21
2059.9362074987603
  0
ARC
  8
_0-0_1
  6
CONTINUOUS
 62
    2
 10
282.6169059011836
 20
2031.9362774987601
 40
3
 50
270
 51
0
  0
LINE
  8
_0-0_1
  6
CONTINUOUS
 62
    2
 10
251.07284002389952
 20
2062.9362224987599
 11
282.6169059011836
 21
2062.9362224987599
  0
ARC
  8
_0-0_1
  6
CONTINUOUS
 62
    2
 10
251.07284002389952
 20
2059.9362224987599
 40
3
 50
90
 51
224.9999999999975
  0
LINE
  8
_0-0_1
  6
CONTINUOUS
 62
    2
 10
279.07278502389909
 20
2028.9362774987601
 11
282.6169059011836
 21
2028.9362774987601
  0
ARC
  8
_0-0_1
  6
CONTINUOUS
 62
    2
 10
279.07278502389909
 20
2031.9362774987601
 40
3
 50
224.99999999999747
 51
270
  0
LINE
  8
_0-0_1
  6
CONTINUOUS
 62
    2
 10
214.61697590118365
 20
2070.9362424987603
 11
239.61697590118365
 21
2045.9362424987601
  0
LINE
  8
_0-0_1
  6
CONTINUOUS
 62
    2
 10
259.61697590118365
 20
2025.9362424987601
 11
269.61696090118357
 21
2015.9362574987601
  0
LINE
  8
_0-0_1
  6
CONTINUOUS
 62
    2
 10
1092.6169759011837
 20
1656.2184879693391
 11
1094.6169759011837
 21
1654.2184879693391
  0
LINE
  8
_0-0_1
  6
CONTINUOUS
 62
    2
 10
259.61696090118357
 20
1606.2251829693391
 11
269.62361090118338
 21
1596.2184879693391
  0
LINE
  8
_0-0_1
  6
CONTINUOUS
 62
    2
 10
214.61697590118365
 20
1651.2250329693391
 11
239.62353590118391
 21
1626.2185179693392
  0
LINE
  8
_0-0_1
  6
CONTINUOUS
 62
    2
 10
251.37227611796607
 20
1637.0971676257791
 11
278.25095577440743
 21
1610.2184879693391
  0
ARC
  8
_0-0_1
  6
CONTINUOUS
 62
    2
 10
253.49359646152561
 20
1639.2184879693391
 40
3
 50
90
 51
224.99999999999287
  0
LINE
  8
_0-0_1
  6
CONTINUOUS
 62
    2
 10
259.61696090118357
 20
1609.0534929693392
 11
259.61696090118357
 21
1606.2251079693392
  0
LINE
  8
_0-0_1
  6
CONTINUOUS
 62
    2
 10
242.45193590118333
 20
1626.2185179693392
 11
259.61696090118357
 21
1609.0534929693392
  0
LINE
  8
_0-0_1
  6
CONTINUOUS
 62
    2
 10
242.45193590118333
 20
1626.2185179693392
 11
239.62353590118391
 21
1626.2185179693392
  0
LINE
  8
_0-0_1
  6
CONTINUOUS
 62
    2
 10
278.25095577440743
 20
1610.2184879693391
 11
287.61695607397269
 21
1610.2184879693391
  0
LINE
  8
_0-0_1
  6
CONTINUOUS
 62
    2
 10
253.49359646152561
 20
1642.2184879693391
 11
287.61695607397269
 21
1642.2184879693391
  0
LINE
  8
_0-0_1
  6
CONTINUOUS
 62
    2
 10
214.61697590118365
 20
1654.2184879693391
 11
214.61697590118365
 21
1651.2250329693391
  0
LINE
  8
_0-0_1
  6
CONTINUOUS
 62
    2
 10
214.61697590118365
 20
1654.2184879693391
 11
216.61697590118365
 21
1656.2184879693391
  0
ARC
  8
_0-0_1
  6
CONTINUOUS
 62
    2
 10
1091.6169759011837
 20
1645.2184879693391
 40
3
 50
270
 51
0
  0
LINE
  8
_0-0_1
  6
CONTINUOUS
 62
    2
 10
1077.6169759011827
 20
1642.2184879693391
 11
1091.6169759011837
 21
1642.2184879693391
  0
ARC
  8
_0-0_1
  6
CONTINUOUS
 62
    2
 10
1077.6169759011827
 20
1639.2184879693391
 40
3
 50
90
 51
180
  0
LINE
  8
_0-0_1
  6
CONTINUOUS
 62
    2
 10
1074.6169759011827
 20
1613.2184879693391
 11
1074.6169759011827
 21
1639.2184879693391
  0
ARC
  8
_0-0_1
  6
CONTINUOUS
 62
    2
 10
1077.6169759011827
 20
1613.2184879693391
 40
3
 50
180
 51
270
  0
LINE
  8
_0-0_1
  6
CONTINUOUS
 62
    2
 10
1091.6169759011837
 20
1610.2184879693391
 11
1077.6169759011827
 21
1610.2184879693391
  0
ARC
  8
_0-0_1
  6
CONTINUOUS
 62
    2
 10
1091.6169759011837
 20
1607.2184879693391
 40
3
 50
0
 51
90
  0
LINE
  8
_0-0_1
  6
CONTINUOUS
 62
    2
 10
1094.6169759011837
 20
1654.2184879693391
 11
1094.6169759011837
 21
1645.2184879693391
  0
LINE
  8
_0-0_1
  6
CONTINUOUS
 62
    2
 10
1094.6169759011837
 20
1598.2184879693391
 11
1094.6169759011837
 21
1607.2184879693391
  0
LINE
  8
_0-0_1
  6
CONTINUOUS
 62
    2
 10
1092.6169759011837
 20
1596.2184879693391
 11
1094.6169759011837
 21
1598.2184879693391
  0
LINE
  8
_0-0_1
  6
CONTINUOUS
 62
    2
 10
1092.6169759011837
 20
1656.2184879693391
 11
216.61697590118365
 21
1656.2184879693391
  0
LINE
  8
_0-0_1
  6
CONTINUOUS
 62
    2
 10
1092.6169759011837
 20
1596.2184879693391
 11
269.62361090118338
 21
1596.2184879693391
  0
LINE
  8
_0-0_1
  6
CONTINUOUS
 62
    2
 10
1004.6169560739728
 20
1639.2184879693391
 11
1004.6169560739728
 21
1613.2184879693391
  0
ARC
  8
_0-0_1
  6
CONTINUOUS
 62
    2
 10
1057.6169560739727
 20
1639.2184879693391
 40
3
 50
0
 51
90
  0
ARC
  8
_0-0_1
  6
CONTINUOUS
 62
    2
 10
1057.6169560739727
 20
1613.2184879693391
 40
3
 50
270
 51
0
  0
LINE
  8
_0-0_1
  6
CONTINUOUS
 62
    2
 10
1007.6169560739728
 20
1610.2184879693391
 11
1057.6169560739727
 21
1610.2184879693391
  0
ARC
  8
_0-0_1
  6
CONTINUOUS
 62
    2
 10
1007.6169560739728
 20
1613.2184879693391
 40
3
 50
180
 51
270
  0
LINE
  8
_0-0_1
  6
CONTINUOUS
 62
    2
 10
1007.6169560739728
 20
1642.2184879693391
 11
1057.6169560739727
 21
1642.2184879693391
  0
ARC
  8
_0-0_1
  6
CONTINUOUS
 62
    2
 10
1007.6169560739728
 20
1639.2184879693391
 40
3
 50
90
 51
180
  0
ARC
  8
_0-0_1
  6
CONTINUOUS
 62
    2
 10
987.61695607397166
 20
1639.2184879693391
 40
3
 50
0
 51
90
  0
LINE
  8
_0-0_1
  6
CONTINUOUS
 62
    2
 10
990.6169560739728
 20
1613.2184879693391
 11
990.6169560739728
 21
1639.2184879693391
  0
ARC
  8
_0-0_1
  6
CONTINUOUS
 62
    2
 10
987.61695607397166
 20
1613.2184879693391
 40
3
 50
270
 51
0
  0
LINE
  8
_0-0_1
  6
CONTINUOUS
 62
    2
 10
937.61695607397269
 20
1610.2184879693391
 11
987.61695607397166
 21
1610.2184879693391
  0
ARC
  8
_0-0_1
  6
CONTINUOUS
 62
    2
 10
937.61695607397269
 20
1613.2184879693391
 40
3
 50
180
 51
270
  0
LINE
  8
_0-0_1
  6
CONTINUOUS
 62
    2
 10
934.61695607397269
 20
1639.2184879693391
 11
934.61695607397269
 21
1613.2184879693391
  0
LINE
  8
_0-0_1
  6
CONTINUOUS
 62
    2
 10
937.61695607397269
 20
1642.2184879693391
 11
987.61695607397166
 21
1642.2184879693391
  0
ARC
  8
_0-0_1
  6
CONTINUOUS
 62
    2
 10
937.61695607397269
 20
1639.2184879693391
 40
3
 50
90
 51
180
  0
ARC
  8
_0-0_1
  6
CONTINUOUS
 62
    2
 10
917.61695607397269
 20
1639.2184879693391
 40
3
 50
0
 51
90
  0
LINE
  8
_0-0_1
  6
CONTINUOUS
 62
    2
 10
920.61695607397269
 20
1613.2184879693391
 11
920.61695607397269
 21
1639.2184879693391
  0
ARC
  8
_0-0_1
  6
CONTINUOUS
 62
    2
 10
917.61695607397269
 20
1613.2184879693391
 40
3
 50
270
 51
0
  0
LINE
  8
_0-0_1
  6
CONTINUOUS
 62
    2
 10
867.61695607397257
 20
1610.2184879693391
 11
917.61695607397269
 21
1610.2184879693391
  0
ARC
  8
_0-0_1
  6
CONTINUOUS
 62
    2
 10
867.61695607397257
 20
1613.2184879693391
 40
3
 50
180
 51
270
  0
LINE
  8
_0-0_1
  6
CONTINUOUS
 62
    2
 10
864.61695607397257
 20
1639.2184879693391
 11
864.61695607397257
 21
1613.2184879693391
  0
LINE
  8
_0-0_1
  6
CONTINUOUS
 62
    2
 10
867.61695607397257
 20
1642.2184879693391
 11
917.61695607397269
 21
1642.2184879693391
  0
ARC
  8
_0-0_1
  6
CONTINUOUS
 62
    2
 10
867.61695607397257
 20
1639.2184879693391
 40
3
 50
90
 51
180
  0
ARC
  8
_0-0_1
  6
CONTINUOUS
 62
    2
 10
847.61695607397257
 20
1639.2184879693391
 40
3
 50
0
 51
90
  0
LINE
  8
_0-0_1
  6
CONTINUOUS
 62
    2
 10
850.61695607397257
 20
1613.2184879693391
 11
850.61695607397257
 21
1639.2184879693391
  0
ARC
  8
_0-0_1
  6
CONTINUOUS
 62
    2
 10
847.61695607397257
 20
1613.2184879693391
 40
3
 50
270
 51
0
  0
LINE
  8
_0-0_1
  6
CONTINUOUS
 62
    2
 10
797.61695607397257
 20
1610.2184879693391
 11
847.61695607397257
 21
1610.2184879693391
  0
ARC
  8
_0-0_1
  6
CONTINUOUS
 62
    2
 10
797.61695607397257
 20
1613.2184879693391
 40
3
 50
180
 51
270
  0
LINE
  8
_0-0_1
  6
CONTINUOUS
 62
    2
 10
794.61695607397257
 20
1639.2184879693391
 11
794.61695607397257
 21
1613.2184879693391
  0
LINE
  8
_0-0_1
  6
CONTINUOUS
 62
    2
 10
797.61695607397257
 20
1642.2184879693391
 11
847.61695607397257
 21
1642.2184879693391
  0
ARC
  8
_0-0_1
  6
CONTINUOUS
 62
    2
 10
797.61695607397257
 20
1639.2184879693391
 40
3
 50
90
 51
180
  0
ARC
  8
_0-0_1
  6
CONTINUOUS
 62
    2
 10
777.61695607397257
 20
1639.2184879693391
 40
3
 50
0
 51
90
  0
LINE
  8
_0-0_1
  6
CONTINUOUS
 62
    2
 10
780.61695607397257
 20
1613.2184879693391
 11
780.61695607397257
 21
1639.2184879693391
  0
ARC
  8
_0-0_1
  6
CONTINUOUS
 62
    2
 10
777.61695607397257
 20
1613.2184879693391
 40
3
 50
270
 51
0
  0
LINE
  8
_0-0_1
  6
CONTINUOUS
 62
    2
 10
727.61695607397303
 20
1610.2184879693391
 11
777.61695607397257
 21
1610.2184879693391
  0
ARC
  8
_0-0_1
  6
CONTINUOUS
 62
    2
 10
727.61695607397303
 20
1613.2184879693391
 40
3
 50
180
 51
270
  0
LINE
  8
_0-0_1
  6
CONTINUOUS
 62
    2
 10
724.61695607397291
 20
1639.2184879693391
 11
724.61695607397291
 21
1613.2184879693391
  0
LINE
  8
_0-0_1
  6
CONTINUOUS
 62
    2
 10
727.61695607397303
 20
1642.2184879693391
 11
777.61695607397257
 21
1642.2184879693391
  0
ARC
  8
_0-0_1
  6
CONTINUOUS
 62
    2
 10
727.61695607397303
 20
1639.2184879693391
 40
3
 50
90
 51
180
  0
ARC
  8
_0-0_1
  6
CONTINUOUS
 62
    2
 10
707.61695607397257
 20
1639.2184879693391
 40
3
 50
0
 51
90
  0
LINE
  8
_0-0_1
  6
CONTINUOUS
 62
    2
 10
710.61695607397257
 20
1613.2184879693391
 11
710.61695607397257
 21
1639.2184879693391
  0
ARC
  8
_0-0_1
  6
CONTINUOUS
 62
    2
 10
707.61695607397257
 20
1613.2184879693391
 40
3
 50
270
 51
0
  0
LINE
  8
_0-0_1
  6
CONTINUOUS
 62
    2
 10
657.61695607397257
 20
1610.2184879693391
 11
707.61695607397257
 21
1610.2184879693391
  0
ARC
  8
_0-0_1
  6
CONTINUOUS
 62
    2
 10
657.61695607397257
 20
1613.2184879693391
 40
3
 50
180
 51
270
  0
LINE
  8
_0-0_1
  6
CONTINUOUS
 62
    2
 10
654.61695607397269
 20
1639.2184879693391
 11
654.61695607397269
 21
1613.2184879693391
  0
LINE
  8
_0-0_1
  6
CONTINUOUS
 62
    2
 10
657.61695607397257
 20
1642.2184879693391
 11
707.61695607397257
 21
1642.2184879693391
  0
ARC
  8
_0-0_1
  6
CONTINUOUS
 62
    2
 10
657.61695607397257
 20
1639.2184879693391
 40
3
 50
90
 51
180
  0
ARC
  8
_0-0_1
  6
CONTINUOUS
 62
    2
 10
637.61695607397314
 20
1639.2184879693391
 40
3
 50
0
 51
90
  0
LINE
  8
_0-0_1
  6
CONTINUOUS
 62
    2
 10
640.61695607397314
 20
1613.2184879693391
 11
640.61695607397314
 21
1639.2184879693391
  0
ARC
  8
_0-0_1
  6
CONTINUOUS
 62
    2
 10
637.61695607397314
 20
1613.2184879693391
 40
3
 50
270
 51
0
  0
LINE
  8
_0-0_1
  6
CONTINUOUS
 62
    2
 10
587.61695607397269
 20
1610.2184879693391
 11
637.61695607397314
 21
1610.2184879693391
  0
ARC
  8
_0-0_1
  6
CONTINUOUS
 62
    2
 10
587.61695607397269
 20
1613.2184879693391
 40
3
 50
180
 51
270
  0
LINE
  8
_0-0_1
  6
CONTINUOUS
 62
    2
 10
584.61695607397269
 20
1639.2184879693391
 11
584.61695607397269
 21
1613.2184879693391
  0
LINE
  8
_0-0_1
  6
CONTINUOUS
 62
    2
 10
587.61695607397269
 20
1642.2184879693391
 11
637.61695607397314
 21
1642.2184879693391
  0
ARC
  8
_0-0_1
  6
CONTINUOUS
 62
    2
 10
587.61695607397269
 20
1639.2184879693391
 40
3
 50
90
 51
180
  0
ARC
  8
_0-0_1
  6
CONTINUOUS
 62
    2
 10
567.61695607397269
 20
1639.2184879693391
 40
3
 50
0
 51
90
  0
LINE
  8
_0-0_1
  6
CONTINUOUS
 62
    2
 10
570.61695607397269
 20
1613.2184879693391
 11
570.61695607397269
 21
1639.2184879693391
  0
ARC
  8
_0-0_1
  6
CONTINUOUS
 62
    2
 10
567.61695607397269
 20
1613.2184879693391
 40
3
 50
270
 51
0
  0
LINE
  8
_0-0_1
  6
CONTINUOUS
 62
    2
 10
517.61695607397314
 20
1610.2184879693391
 11
567.61695607397269
 21
1610.2184879693391
  0
ARC
  8
_0-0_1
  6
CONTINUOUS
 62
    2
 10
517.61695607397314
 20
1613.2184879693391
 40
3
 50
180
 51
270
  0
LINE
  8
_0-0_1
  6
CONTINUOUS
 62
    2
 10
514.61695607397269
 20
1639.2184879693391
 11
514.61695607397269
 21
1613.2184879693391
  0
LINE
  8
_0-0_1
  6
CONTINUOUS
 62
    2
 10
517.61695607397314
 20
1642.2184879693391
 11
567.61695607397269
 21
1642.2184879693391
  0
ARC
  8
_0-0_1
  6
CONTINUOUS
 62
    2
 10
517.61695607397314
 20
1639.2184879693391
 40
3
 50
90
 51
180
  0
ARC
  8
_0-0_1
  6
CONTINUOUS
 62
    2
 10
497.61695607397269
 20
1639.2184879693391
 40
3
 50
0
 51
90
  0
LINE
  8
_0-0_1
  6
CONTINUOUS
 62
    2
 10
500.61695607397269
 20
1613.2184879693391
 11
500.61695607397269
 21
1639.2184879693391
  0
ARC
  8
_0-0_1
  6
CONTINUOUS
 62
    2
 10
497.61695607397269
 20
1613.2184879693391
 40
3
 50
270
 51
0
  0
LINE
  8
_0-0_1
  6
CONTINUOUS
 62
    2
 10
447.61695607397269
 20
1610.2184879693391
 11
497.61695607397269
 21
1610.2184879693391
  0
ARC
  8
_0-0_1
  6
CONTINUOUS
 62
    2
 10
447.61695607397269
 20
1613.2184879693391
 40
3
 50
180
 51
270
  0
LINE
  8
_0-0_1
  6
CONTINUOUS
 62
    2
 10
444.61695607397269
 20
1639.2184879693391
 11
444.61695607397269
 21
1613.2184879693391
  0
LINE
  8
_0-0_1
  6
CONTINUOUS
 62
    2
 10
447.61695607397269
 20
1642.2184879693391
 11
497.61695607397269
 21
1642.2184879693391
  0
ARC
  8
_0-0_1
  6
CONTINUOUS
 62
    2
 10
447.61695607397269
 20
1639.2184879693391
 40
3
 50
90
 51
180
  0
ARC
  8
_0-0_1
  6
CONTINUOUS
 62
    2
 10
427.61695607397269
 20
1639.2184879693391
 40
3
 50
0
 51
90
  0
LINE
  8
_0-0_1
  6
CONTINUOUS
 62
    2
 10
430.61695607397269
 20
1613.2184879693391
 11
430.61695607397269
 21
1639.2184879693391
  0
ARC
  8
_0-0_1
  6
CONTINUOUS
 62
    2
 10
427.61695607397269
 20
1613.2184879693391
 40
3
 50
270
 51
0
  0
LINE
  8
_0-0_1
  6
CONTINUOUS
 62
    2
 10
377.61695607397269
 20
1610.2184879693391
 11
427.61695607397269
 21
1610.2184879693391
  0
ARC
  8
_0-0_1
  6
CONTINUOUS
 62
    2
 10
377.61695607397269
 20
1613.2184879693391
 40
3
 50
180
 51
270
  0
LINE
  8
_0-0_1
  6
CONTINUOUS
 62
    2
 10
374.61695607397269
 20
1639.2184879693391
 11
374.61695607397269
 21
1613.2184879693391
  0
LINE
  8
_0-0_1
  6
CONTINUOUS
 62
    2
 10
377.61695607397269
 20
1642.2184879693391
 11
427.61695607397269
 21
1642.2184879693391
  0
ARC
  8
_0-0_1
  6
CONTINUOUS
 62
    2
 10
377.61695607397269
 20
1639.2184879693391
 40
3
 50
90
 51
180
  0
ARC
  8
_0-0_1
  6
CONTINUOUS
 62
    2
 10
357.61695607397269
 20
1639.2184879693391
 40
3
 50
0
 51
90
  0
LINE
  8
_0-0_1
  6
CONTINUOUS
 62
    2
 10
360.61695607397269
 20
1613.2184879693391
 11
360.61695607397269
 21
1639.2184879693391
  0
ARC
  8
_0-0_1
  6
CONTINUOUS
 62
    2
 10
357.61695607397269
 20
1613.2184879693391
 40
3
 50
270
 51
0
  0
LINE
  8
_0-0_1
  6
CONTINUOUS
 62
    2
 10
307.61695607397269
 20
1610.2184879693391
 11
357.61695607397269
 21
1610.2184879693391
  0
ARC
  8
_0-0_1
  6
CONTINUOUS
 62
    2
 10
307.61695607397269
 20
1613.2184879693391
 40
3
 50
180
 51
270
  0
LINE
  8
_0-0_1
  6
CONTINUOUS
 62
    2
 10
304.61695607397269
 20
1639.2184879693391
 11
304.61695607397269
 21
1613.2184879693391
  0
LINE
  8
_0-0_1
  6
CONTINUOUS
 62
    2
 10
307.61695607397269
 20
1642.2184879693391
 11
357.61695607397269
 21
1642.2184879693391
  0
ARC
  8
_0-0_1
  6
CONTINUOUS
 62
    2
 10
307.61695607397269
 20
1639.2184879693391
 40
3
 50
90
 51
180
  0
LINE
  8
_0-0_1
  6
CONTINUOUS
 62
    2
 10
1060.6169560739727
 20
1613.2184879693391
 11
1060.6169560739727
 21
1639.2184879693391
  0
ARC
  8
_0-0_1
  6
CONTINUOUS
 62
    2
 10
287.61695607397269
 20
1639.2184879693391
 40
3
 50
0
 51
90
  0
LINE
  8
_0-0_1
  6
CONTINUOUS
 62
    2
 10
290.61695607397269
 20
1613.2184879693391
 11
290.61695607397269
 21
1639.2184879693391
  0
ARC
  8
_0-0_1
  6
CONTINUOUS
 62
    2
 10
287.61695607397269
 20
1613.2184879693391
 40
3
 50
270
 51
0
  0
LINE
  8
_0-0_1
  6
CONTINUOUS
 62
    2
 10
795.2027623388102
 20
1186.4921289651752
 11
795.2027623388102
 21
1175.9396625275481
  0
LINE
  8
_0-0_1
  6
CONTINUOUS
 62
    2
 10
793.78854877643755
 20
1174.5254489651752
 11
795.2027623388102
 21
1175.9396625275481
  0
ARC
  8
_0-0_1
  6
CONTINUOUS
 62
    2
 10
778.20276233880998
 20
1192.4921289651752
 40
2.9999999999999969
 50
180
 51
270
  0
LINE
  8
_0-0_1
  6
CONTINUOUS
 62
    2
 10
778.20276233880998
 20
1189.4921289651752
 11
792.2027623388102
 21
1189.4921289651752
  0
LINE
  8
_0-0_1
  6
CONTINUOUS
 62
    2
 10
775.20276233881009
 20
1192.4921289651752
 11
775.20276233881009
 21
1231.4921289651752
  0
ARC
  8
_0-0_1
  6
CONTINUOUS
 62
    2
 10
778.20276233880998
 20
1231.4921289651752
 40
2.9999999999999969
 50
90
 51
180
  0
LINE
  8
_0-0_1
  6
CONTINUOUS
 62
    2
 10
778.20276233880998
 20
1234.4921289651752
 11
792.2027623388102
 21
1234.4921289651752
  0
ARC
  8
_0-0_1
  6
CONTINUOUS
 62
    2
 10
792.2027623388102
 20
1186.4921289651752
 40
2.9999999999999969
 50
0
 51
90
  0
ARC
  8
_0-0_1
  6
CONTINUOUS
 62
    2
 10
792.2027623388102
 20
1237.4921289651752
 40
2.9999999999999969
 50
270
 51
0
  0
LINE
  8
_0-0_1
  6
CONTINUOUS
 62
    2
 10
795.2027623388102
 20
1237.4921289651752
 11
795.2027623388102
 21
1248.0779154028021
  0
LINE
  8
_0-0_1
  6
CONTINUOUS
 62
    2
 10
795.2027623388102
 20
1248.0779154028021
 11
793.78854877643755
 21
1249.4921289651752
  0
ARC
  8
_0-0_1
  6
CONTINUOUS
 62
    2
 10
355.20276233881032
 20
1192.5254489651752
 40
2.9999999999999969
 50
270
 51
0
  0
LINE
  8
_0-0_1
  6
CONTINUOUS
 62
    2
 10
358.20276233881032
 20
1231.4921289651752
 11
358.20276233881032
 21
1192.5254489651752
  0
ARC
  8
_0-0_1
  6
CONTINUOUS
 62
    2
 10
355.20276233881032
 20
1231.4921289651752
 40
2.9999999999999969
 50
0
 51
90
  0
ARC
  8
_0-0_1
  6
CONTINUOUS
 62
    2
 10
376.20276233881032
 20
1231.4921289651752
 40
2.9999999999999969
 50
90
 51
180
  0
LINE
  8
_0-0_1
  6
CONTINUOUS
 62
    2
 10
373.20276233881032
 20
1192.5254489651752
 11
373.20276233881032
 21
1231.4921289651752
  0
ARC
  8
_0-0_1
  6
CONTINUOUS
 62
    2
 10
376.20276233881032
 20
1192.5254489651752
 40
2.9999999999999969
 50
180
 51
270
  0
LINE
  8
_0-0_1
  6
CONTINUOUS
 62
    2
 10
422.20276233881032
 20
1189.5254489651752
 11
376.20276233881032
 21
1189.5254489651752
  0
ARC
  8
_0-0_1
  6
CONTINUOUS
 62
    2
 10
422.20276233881032
 20
1192.5254489651752
 40
2.9999999999999969
 50
270
 51
0
  0
LINE
  8
_0-0_1
  6
CONTINUOUS
 62
    2
 10
425.20276233881032
 20
1231.4921289651752
 11
425.20276233881032
 21
1192.5254489651752
  0
LINE
  8
_0-0_1
  6
CONTINUOUS
 62
    2
 10
422.20276233881032
 20
1234.4921289651752
 11
376.20276233881032
 21
1234.4921289651752
  0
ARC
  8
_0-0_1
  6
CONTINUOUS
 62
    2
 10
422.20276233881032
 20
1231.4921289651752
 40
2.9999999999999969
 50
0
 51
90
  0
ARC
  8
_0-0_1
  6
CONTINUOUS
 62
    2
 10
443.20276233881032
 20
1231.4921289651752
 40
2.9999999999999969
 50
90
 51
180
  0
LINE
  8
_0-0_1
  6
CONTINUOUS
 62
    2
 10
440.20276233881032
 20
1192.5254489651752
 11
440.20276233881032
 21
1231.4921289651752
  0
ARC
  8
_0-0_1
  6
CONTINUOUS
 62
    2
 10
443.20276233881032
 20
1192.5254489651752
 40
2.9999999999999969
 50
180
 51
270
  0
LINE
  8
_0-0_1
  6
CONTINUOUS
 62
    2
 10
489.20276233880986
 20
1189.5254489651752
 11
443.20276233881032
 21
1189.5254489651752
  0
ARC
  8
_0-0_1
  6
CONTINUOUS
 62
    2
 10
489.20276233880986
 20
1192.5254489651752
 40
2.9999999999999969
 50
270
 51
0
  0
LINE
  8
_0-0_1
  6
CONTINUOUS
 62
    2
 10
489.20276233880986
 20
1234.4921289651752
 11
443.20276233881032
 21
1234.4921289651752
  0
LINE
  8
_0-0_1
  6
CONTINUOUS
 62
    2
 10
492.20276233881032
 20
1231.4921289651752
 11
492.20276233881032
 21
1192.5254489651752
  0
ARC
  8
_0-0_1
  6
CONTINUOUS
 62
    2
 10
489.20276233880986
 20
1231.4921289651752
 40
2.9999999999999969
 50
0
 51
90
  0
ARC
  8
_0-0_1
  6
CONTINUOUS
 62
    2
 10
510.20276233880986
 20
1231.4921289651752
 40
2.9999999999999969
 50
90
 51
180
  0
LINE
  8
_0-0_1
  6
CONTINUOUS
 62
    2
 10
556.20276233880986
 20
1234.4921289651752
 11
510.20276233880986
 21
1234.4921289651752
  0
ARC
  8
_0-0_1
  6
CONTINUOUS
 62
    2
 10
556.20276233880986
 20
1231.4921289651752
 40
2.9999999999999969
 50
0
 51
90
  0
ARC
  8
_0-0_1
  6
CONTINUOUS
 62
    2
 10
577.20276233880986
 20
1231.4921289651752
 40
2.9999999999999969
 50
90
 51
180
  0
LINE
  8
_0-0_1
  6
CONTINUOUS
 62
    2
 10
623.20276233880986
 20
1234.4921289651752
 11
577.20276233880986
 21
1234.4921289651752
  0
ARC
  8
_0-0_1
  6
CONTINUOUS
 62
    2
 10
623.20276233880986
 20
1231.4921289651752
 40
2.9999999999999969
 50
0
 51
90
  0
LINE
  8
_0-0_1
  6
CONTINUOUS
 62
    2
 10
626.20276233880986
 20
1192.5254489651752
 11
626.20276233880986
 21
1231.4921289651752
  0
ARC
  8
_0-0_1
  6
CONTINUOUS
 62
    2
 10
623.20276233880986
 20
1192.5254489651752
 40
2.9999999999999969
 50
270
 51
0
  0
LINE
  8
_0-0_1
  6
CONTINUOUS
 62
    2
 10
577.20276233880986
 20
1189.5254489651752
 11
623.20276233880986
 21
1189.5254489651752
  0
LINE
  8
_0-0_1
  6
CONTINUOUS
 62
    2
 10
574.20276233880986
 20
1192.5254489651752
 11
574.20276233880986
 21
1231.4921289651752
  0
ARC
  8
_0-0_1
  6
CONTINUOUS
 62
    2
 10
577.20276233880986
 20
1192.5254489651752
 40
2.9999999999999969
 50
180
 51
270
  0
LINE
  8
_0-0_1
  6
CONTINUOUS
 62
    2
 10
559.20276233880986
 20
1192.5254489651752
 11
559.20276233880986
 21
1231.4921289651752
  0
ARC
  8
_0-0_1
  6
CONTINUOUS
 62
    2
 10
556.20276233880986
 20
1192.5254489651752
 40
2.9999999999999969
 50
270
 51
0
  0
LINE
  8
_0-0_1
  6
CONTINUOUS
 62
    2
 10
510.20276233880986
 20
1189.5254489651752
 11
556.20276233880986
 21
1189.5254489651752
  0
LINE
  8
_0-0_1
  6
CONTINUOUS
 62
    2
 10
507.20276233880986
 20
1192.5254489651752
 11
507.20276233880986
 21
1231.4921289651752
  0
ARC
  8
_0-0_1
  6
CONTINUOUS
 62
    2
 10
510.20276233880986
 20
1192.5254489651752
 40
2.9999999999999969
 50
180
 51
270
  0
ARC
  8
_0-0_1
  6
CONTINUOUS
 62
    2
 10
644.20276233881009
 20
1231.4921289651752
 40
2.9999999999999969
 50
90
 51
180
  0
LINE
  8
_0-0_1
  6
CONTINUOUS
 62
    2
 10
690.20276233880975
 20
1234.4921289651752
 11
644.20276233881009
 21
1234.4921289651752
  0
ARC
  8
_0-0_1
  6
CONTINUOUS
 62
    2
 10
690.20276233880975
 20
1231.4921289651752
 40
2.9999999999999969
 50
0
 51
90
  0
LINE
  8
_0-0_1
  6
CONTINUOUS
 62
    2
 10
693.20276233880975
 20
1192.5254489651752
 11
693.20276233880975
 21
1231.4921289651752
  0
ARC
  8
_0-0_1
  6
CONTINUOUS
 62
    2
 10
690.20276233880975
 20
1192.5254489651752
 40
2.9999999999999969
 50
270
 51
0
  0
LINE
  8
_0-0_1
  6
CONTINUOUS
 62
    2
 10
644.20276233881009
 20
1189.5254489651752
 11
690.20276233880975
 21
1189.5254489651752
  0
LINE
  8
_0-0_1
  6
CONTINUOUS
 62
    2
 10
641.20276233881032
 20
1192.5254489651752
 11
641.20276233881032
 21
1231.4921289651752
  0
ARC
  8
_0-0_1
  6
CONTINUOUS
 62
    2
 10
644.20276233881009
 20
1192.5254489651752
 40
2.9999999999999969
 50
180
 51
270
  0
ARC
  8
_0-0_1
  6
CONTINUOUS
 62
    2
 10
757.20276233881009
 20
1231.4921289651752
 40
2.9999999999999969
 50
0
 51
90
  0
LINE
  8
_0-0_1
  6
CONTINUOUS
 62
    2
 10
760.20276233880998
 20
1192.5254489651752
 11
760.20276233880998
 21
1231.4921289651752
  0
ARC
  8
_0-0_1
  6
CONTINUOUS
 62
    2
 10
757.20276233881009
 20
1192.5254489651752
 40
2.9999999999999969
 50
270
 51
0
  0
LINE
  8
_0-0_1
  6
CONTINUOUS
 62
    2
 10
711.20276233880975
 20
1189.5254489651752
 11
757.20276233881009
 21
1189.5254489651752
  0
ARC
  8
_0-0_1
  6
CONTINUOUS
 62
    2
 10
711.20276233880975
 20
1192.5254489651752
 40
2.9999999999999969
 50
180
 51
270
  0
LINE
  8
_0-0_1
  6
CONTINUOUS
 62
    2
 10
711.20276233880975
 20
1234.4921289651752
 11
757.20276233881009
 21
1234.4921289651752
  0
LINE
  8
_0-0_1
  6
CONTINUOUS
 62
    2
 10
708.20276233880975
 20
1231.4921289651752
 11
708.20276233880975
 21
1192.5254489651752
  0
ARC
  8
_0-0_1
  6
CONTINUOUS
 62
    2
 10
711.20276233880975
 20
1231.4921289651752
 40
2.9999999999999969
 50
90
 51
180
  0
ARC
  8
_0-0_1
  6
CONTINUOUS
 62
    2
 10
288.20276233881032
 20
1231.4921289651752
 40
2.9999999999999969
 50
0
 51
90
  0
LINE
  8
_0-0_1
  6
CONTINUOUS
 62
    2
 10
288.20276233881032
 20
1234.4921289651752
 11
256.48703358627199
 21
1234.4921289651752
  0
LINE
  8
_0-0_1
  6
CONTINUOUS
 62
    2
 10
291.20276233881032
 20
1231.4921289651752
 11
291.20276233881032
 21
1199.7764002126391
  0
ARC
  8
_0-0_1
  6
CONTINUOUS
 62
    2
 10
309.20276233881032
 20
1231.4921289651752
 40
2.9999999999999969
 50
90
 51
180
  0
LINE
  8
_0-0_1
  6
CONTINUOUS
 62
    2
 10
306.20276233881032
 20
1231.4921289651752
 11
306.20276233881032
 21
1192.5254489651752
  0
ARC
  8
_0-0_1
  6
CONTINUOUS
 62
    2
 10
309.20276233881032
 20
1192.5254489651752
 40
2.9999999999999969
 50
180
 51
270
  0
ARC
  8
_0-0_1
  6
CONTINUOUS
 62
    2
 10
288.20276233881032
 20
1199.7764002126391
 40
2.9999999999999969
 50
225.00000000000159
 51
0
  0
LINE
  8
_0-0_1
  6
CONTINUOUS
 62
    2
 10
286.08144199525077
 20
1197.6550798690791
 11
254.36571324271245
 21
1229.3708086216152
  0
ARC
  8
_0-0_1
  6
CONTINUOUS
 62
    2
 10
256.48703358627199
 20
1231.4921289651752
 40
2.9999999999999969
 50
90
 51
225.00000000000159
  0
LINE
  8
_0-0_1
  6
CONTINUOUS
 62
    2
 10
270.20276233881077
 20
1189.4921289651752
 11
270.20276233881077
 21
1192.3205560899221
  0
LINE
  8
_0-0_1
  6
CONTINUOUS
 62
    2
 10
215.20276233881032
 20
1248.0779154028021
 11
215.20276233881032
 21
1244.4921289651752
  0
LINE
  8
_0-0_1
  6
CONTINUOUS
 62
    2
 10
215.20276233881032
 20
1248.0779154028021
 11
216.61697590118365
 21
1249.4921289651752
  0
LINE
  8
_0-0_1
  6
CONTINUOUS
 62
    2
 10
270.20276233881077
 20
1189.4921289651752
 11
285.16944233881031
 21
1174.5254489651752
  0
LINE
  8
_0-0_1
  6
CONTINUOUS
 62
    2
 10
309.20276233881032
 20
1234.4921289651752
 11
355.20276233881032
 21
1234.4921289651752
  0
LINE
  8
_0-0_1
  6
CONTINUOUS
 62
    2
 10
355.20276233881032
 20
1189.5254489651752
 11
309.20276233881032
 21
1189.5254489651752
  0
LINE
  8
_0-0_1
  6
CONTINUOUS
 62
    2
 10
793.78854877643755
 20
1249.4921289651752
 11
216.61697590118365
 21
1249.4921289651752
  0
LINE
  8
_0-0_1
  6
CONTINUOUS
 62
    2
 10
215.20276233881032
 20
1244.4921289651752
 11
248.16944233880986
 21
1211.5254489651752
  0
LINE
  8
_0-0_1
  6
CONTINUOUS
 62
    2
 10
248.16944233880986
 20
1211.5254489651752
 11
250.99786946355653
 21
1211.5254489651752
  0
LINE
  8
_0-0_1
  6
CONTINUOUS
 62
    2
 10
250.99786946355653
 20
1211.5254489651752
 11
270.20276233881077
 21
1192.3205560899221
  0
LINE
  8
_0-0_1
  6
CONTINUOUS
 62
    2
 10
793.78854877643755
 20
1174.5254489651752
 11
285.16944233881031
 21
1174.5254489651752
  0
LINE
  8
_0-0_1
  6
CONTINUOUS
 62
    2
 10
366.6170559011839
 20
800.99834514377528
 11
364.6169459011835
 21
798.99833514377519
  0
LINE
  8
_0-0_1
  6
CONTINUOUS
 62
    2
 10
366.6170559011839
 20
856.99835514377526
 11
364.6169459011835
 21
858.99828514377521
  0
LINE
  8
_0-0_1
  6
CONTINUOUS
 62
    2
 10
231.61697590118365
 20
726.99827514377523
 11
231.61697590118365
 21
780.99828514377521
  0
LINE
  8
_0-0_1
  6
CONTINUOUS
 62
    2
 10
258.6170459011837
 20
783.99833514377519
 11
234.6169659011839
 21
783.99833514377519
  0
LINE
  8
_0-0_1
  6
CONTINUOUS
 62
    2
 10
261.61697590118365
 20
780.99828514377521
 11
261.61697590118365
 21
726.99827514377523
  0
LINE
  8
_0-0_1
  6
CONTINUOUS
 62
    2
 10
276.61697590118365
 20
710.99832514377511
 11
274.61697590118365
 21
708.99831514377513
  0
LINE
  8
_0-0_1
  6
CONTINUOUS
 62
    2
 10
241.6169659011839
 20
843.99828514377521
 11
273.6170459011837
 21
843.99828514377521
  0
LINE
  8
_0-0_1
  6
CONTINUOUS
 62
    2
 10
231.61697590118365
 20
833.99828514377521
 11
231.61697590118365
 21
801.99834514377528
  0
LINE
  8
_0-0_1
  6
CONTINUOUS
 62
    2
 10
276.61697590118365
 20
840.99840514377513
 11
276.61697590118365
 21
816.59826514377505
  0
LINE
  8
_0-0_1
  6
CONTINUOUS
 62
    2
 10
218.61703590118395
 20
708.99831514377513
 11
216.61697590118365
 21
710.99832514377511
  0
LINE
  8
_0-0_1
  6
CONTINUOUS
 62
    2
 10
258.6170459011837
 20
798.99833514377519
 11
234.6169659011839
 21
798.99833514377519
  0
LINE
  8
_0-0_1
  6
CONTINUOUS
 62
    2
 10
216.61697590118365
 20
848.99828514377521
 11
216.61697590118365
 21
710.99832514377511
  0
LINE
  8
_0-0_1
  6
CONTINUOUS
 62
    2
 10
226.6170359011835
 20
858.99828514377521
 11
364.6169459011835
 21
858.99828514377521
  0
LINE
  8
_0-0_1
  6
CONTINUOUS
 62
    2
 10
291.61697590118365
 20
816.99834514377528
 11
291.61697590118365
 21
840.99840514377513
  0
LINE
  8
_0-0_1
  6
CONTINUOUS
 62
    2
 10
258.6170459011837
 20
723.99834514377528
 11
234.6169659011839
 21
723.99834514377528
  0
LINE
  8
_0-0_1
  6
CONTINUOUS
 62
    2
 10
351.6170559011839
 20
840.99840514377513
 11
351.6170559011839
 21
816.99834514377528
  0
LINE
  8
_0-0_1
  6
CONTINUOUS
 62
    2
 10
348.6169959011836
 20
843.99828514377521
 11
294.6169659011839
 21
843.99828514377521
  0
LINE
  8
_0-0_1
  6
CONTINUOUS
 62
    2
 10
348.6169959011836
 20
813.99829514377518
 11
294.6169659011839
 21
813.99829514377518
  0
LINE
  8
_0-0_1
  6
CONTINUOUS
 62
    2
 10
366.6170559011839
 20
856.99835514377526
 11
366.6170559011839
 21
800.99834514377528
  0
LINE
  8
_0-0_1
  6
CONTINUOUS
 62
    2
 10
364.6169459011835
 20
798.99833514377519
 11
281.6170459011837
 21
798.99833514377519
  0
LINE
  8
_0-0_1
  6
CONTINUOUS
 62
    2
 10
276.61697590118365
 20
793.99834514377528
 11
276.61697590118365
 21
710.99832514377511
  0
LINE
  8
_0-0_1
  6
CONTINUOUS
 62
    2
 10
274.61697590118365
 20
708.99831514377513
 11
218.61703590118395
 21
708.99831514377513
  0
ARC
  8
_0-0_1
  6
CONTINUOUS
 62
    2
 10
273.6170459011837
 20
840.99840514377513
 40
3
 50
0
 51
90
  0
ARC
  8
_0-0_1
  6
CONTINUOUS
 62
    2
 10
234.6169659011839
 20
801.99834514377528
 40
3
 50
180
 51
270
  0
ARC
  8
_0-0_1
  6
CONTINUOUS
 62
    2
 10
294.6169659011839
 20
840.99840514377513
 40
3
 50
90
 51
180
  0
ARC
  8
_0-0_1
  6
CONTINUOUS
 62
    2
 10
294.6169659011839
 20
816.99834514377528
 40
3
 50
180
 51
270
  0
ARC
  8
_0-0_1
  6
CONTINUOUS
 62
    2
 10
234.6169659011839
 20
726.99827514377523
 40
3
 50
180
 51
270
  0
ARC
  8
_0-0_1
  6
CONTINUOUS
 62
    2
 10
258.6170459011837
 20
726.99827514377523
 40
3
 50
270
 51
0
  0
ARC
  8
_0-0_1
  6
CONTINUOUS
 62
    2
 10
258.6170459011837
 20
780.99828514377521
 40
3
 50
0
 51
90
  0
ARC
  8
_0-0_1
  6
CONTINUOUS
 62
    2
 10
234.6169659011839
 20
780.99828514377521
 40
3
 50
90
 51
180
  0
ARC
  8
_0-0_1
  6
CONTINUOUS
 62
    2
 10
258.81704590118397
 20
801.79826514377521
 40
3
 50
270
 51
0
  0
ARC
  8
_0-0_1
  6
CONTINUOUS
 62
    2
 10
273.6170459011837
 20
816.59826514377505
 40
3
 50
270
 51
0
  0
ARC
  8
_0-0_1
  6
CONTINUOUS
 62
    2
 10
241.6169659011839
 20
833.99828514377521
 40
10.000000999999999
 50
90
 51
180
  0
ARC
  8
_0-0_1
  6
CONTINUOUS
 62
    2
 10
276.61697590118365
 20
798.99833514377519
 40
14.999999000000001
 50
101.2999800000036
 51
169.59997000000044
  0
ARC
  8
_0-0_1
  6
CONTINUOUS
 62
    2
 10
348.6169959011836
 20
840.99840514377513
 40
3
 50
0
 51
90
  0
ARC
  8
_0-0_1
  6
CONTINUOUS
 62
    2
 10
348.6169959011836
 20
816.99834514377528
 40
3
 50
270
 51
0
  0
ARC
  8
_0-0_1
  6
CONTINUOUS
 62
    2
 10
226.6170359011835
 20
848.99828514377521
 40
10.000000999999999
 50
90
 51
180
  0
ARC
  8
_0-0_1
  6
CONTINUOUS
 62
    2
 10
281.6170459011837
 20
793.99834514377528
 40
5.000000599999999
 50
90
 51
180
  0
LINE
  8
_0-0_1
  6
CONTINUOUS
 62
    2
 10
798.6169059011836
 20
323.00000000010107
 11
751.1168659011837
 21
323.00000000010107
  0
LINE
  8
_0-0_1
  6
CONTINUOUS
 62
    2
 10
834.61697590118376
 20
349.99999000010098
 11
834.61697590118376
 21
330.00000000010107
  0
LINE
  8
_0-0_1
  6
CONTINUOUS
 62
    2
 10
613.1169559011837
 20
326.00006000010103
 11
613.1169559011837
 21
353.99998000010123
  0
LINE
  8
_0-0_1
  6
CONTINUOUS
 62
    2
 10
817.61696590118368
 20
326.99999000010098
 11
831.61696590118345
 21
326.99999000010098
  0
LINE
  8
_0-0_1
  6
CONTINUOUS
 62
    2
 10
545.6169559011837
 20
326.00006000010103
 11
545.6169559011837
 21
353.99998000010123
  0
LINE
  8
_0-0_1
  6
CONTINUOUS
 62
    2
 10
529.6169559011837
 20
356.99999000010121
 11
481.11701590118355
 21
356.99999000010121
  0
LINE
  8
_0-0_1
  6
CONTINUOUS
 62
    2
 10
532.6169659011839
 20
353.99998000010123
 11
532.6169659011839
 21
326.00006000010103
  0
LINE
  8
_0-0_1
  6
CONTINUOUS
 62
    2
 10
597.1169559011837
 20
356.99999000010121
 11
548.61696590118345
 21
356.99999000010121
  0
LINE
  8
_0-0_1
  6
CONTINUOUS
 62
    2
 10
274.61698590118385
 20
408.00003000010111
 11
274.61698590118385
 21
379.99999000010121
  0
LINE
  8
_0-0_1
  6
CONTINUOUS
 62
    2
 10
600.1169659011839
 20
353.99998000010123
 11
600.1169659011839
 21
326.00006000010103
  0
LINE
  8
_0-0_1
  6
CONTINUOUS
 62
    2
 10
732.11700590118357
 20
356.99999000010121
 11
683.61691590118357
 21
356.99999000010121
  0
LINE
  8
_0-0_1
  6
CONTINUOUS
 62
    2
 10
667.61686590118359
 20
353.99998000010123
 11
667.61686590118359
 21
326.00006000010103
  0
LINE
  8
_0-0_1
  6
CONTINUOUS
 62
    2
 10
664.6169059011836
 20
323.00000000010107
 11
616.11696590118345
 21
323.00000000010107
  0
LINE
  8
_0-0_1
  6
CONTINUOUS
 62
    2
 10
597.1169559011837
 20
323.00000000010107
 11
548.61696590118345
 21
323.00000000010107
  0
LINE
  8
_0-0_1
  6
CONTINUOUS
 62
    2
 10
735.11696590118368
 20
353.99998000010123
 11
735.11696590118368
 21
326.00006000010103
  0
LINE
  8
_0-0_1
  6
CONTINUOUS
 62
    2
 10
732.11700590118357
 20
323.00000000010107
 11
683.61691590118357
 21
323.00000000010107
  0
LINE
  8
_0-0_1
  6
CONTINUOUS
 62
    2
 10
327.1168559011835
 20
323.00000000010107
 11
278.61698590118385
 21
323.00000000010107
  0
LINE
  8
_0-0_1
  6
CONTINUOUS
 62
    2
 10
327.1168559011835
 20
356.99999000010121
 11
278.61698590118385
 21
356.99999000010121
  0
LINE
  8
_0-0_1
  6
CONTINUOUS
 62
    2
 10
343.11698590118385
 20
326.00006000010103
 11
343.11698590118385
 21
353.99998000010123
  0
LINE
  8
_0-0_1
  6
CONTINUOUS
 62
    2
 10
664.6169059011836
 20
356.99999000010121
 11
616.11696590118345
 21
356.99999000010121
  0
LINE
  8
_0-0_1
  6
CONTINUOUS
 62
    2
 10
275.61698590118385
 20
326.00006000010103
 11
275.61698590118385
 21
353.99998000010123
  0
LINE
  8
_0-0_1
  6
CONTINUOUS
 62
    2
 10
259.61692590118355
 20
323.00000000010107
 11
230.61698590118385
 21
323.00000000010107
  0
LINE
  8
_0-0_1
  6
CONTINUOUS
 62
    2
 10
259.61692590118355
 20
377.00005000010117
 11
230.61698590118385
 21
377.00005000010117
  0
LINE
  8
_0-0_1
  6
CONTINUOUS
 62
    2
 10
462.11688590118365
 20
356.99999000010121
 11
413.6169459011835
 21
356.99999000010121
  0
LINE
  8
_0-0_1
  6
CONTINUOUS
 62
    2
 10
330.1169959011836
 20
326.00006000010103
 11
330.1169959011836
 21
353.99998000010123
  0
LINE
  8
_0-0_1
  6
CONTINUOUS
 62
    2
 10
462.11688590118365
 20
323.00000000010107
 11
413.6169459011835
 21
323.00000000010107
  0
LINE
  8
_0-0_1
  6
CONTINUOUS
 62
    2
 10
397.6169959011836
 20
353.99998000010123
 11
397.6169959011836
 21
326.00006000010103
  0
LINE
  8
_0-0_1
  6
CONTINUOUS
 62
    2
 10
394.6168559011835
 20
323.00000000010107
 11
346.11697590118365
 21
323.00000000010107
  0
LINE
  8
_0-0_1
  6
CONTINUOUS
 62
    2
 10
680.61695590118359
 20
326.00006000010103
 11
680.61695590118359
 21
353.99998000010123
  0
LINE
  8
_0-0_1
  6
CONTINUOUS
 62
    2
 10
410.6169659011839
 20
326.00006000010103
 11
410.6169659011839
 21
353.99998000010123
  0
LINE
  8
_0-0_1
  6
CONTINUOUS
 62
    2
 10
394.6168559011835
 20
356.99999000010121
 11
346.11697590118365
 21
356.99999000010121
  0
LINE
  8
_0-0_1
  6
CONTINUOUS
 62
    2
 10
465.11689590118385
 20
353.99998000010123
 11
465.11689590118385
 21
326.00006000010103
  0
LINE
  8
_0-0_1
  6
CONTINUOUS
 62
    2
 10
529.6169559011837
 20
323.00000000010107
 11
481.11701590118355
 21
323.00000000010107
  0
LINE
  8
_0-0_1
  6
CONTINUOUS
 62
    2
 10
478.11696590118345
 20
326.00006000010103
 11
478.11696590118345
 21
353.99998000010123
  0
LINE
  8
_0-0_1
  6
CONTINUOUS
 62
    2
 10
814.61700590118357
 20
311.99999000010098
 11
814.61700590118357
 21
324.00005000010106
  0
LINE
  8
_0-0_1
  6
CONTINUOUS
 62
    2
 10
812.61699590118371
 20
309.99998000010112
 11
224.6805259011835
 21
309.99998000010112
  0
LINE
  8
_0-0_1
  6
CONTINUOUS
 62
    2
 10
814.61700590118357
 20
311.99999000010098
 11
812.61699590118371
 21
309.99998000010112
  0
LINE
  8
_0-0_1
  6
CONTINUOUS
 62
    2
 10
812.61699590118371
 20
369.99998000010123
 11
284.61697590118365
 21
369.99998000010123
  0
LINE
  8
_0-0_1
  6
CONTINUOUS
 62
    2
 10
812.61699590118371
 20
369.99998000010123
 11
814.61700590118357
 21
367.99998000010123
  0
LINE
  8
_0-0_1
  6
CONTINUOUS
 62
    2
 10
214.61698590118385
 20
408.00003000010111
 11
214.61698590118385
 21
319.99999000010121
  0
LINE
  8
_0-0_1
  6
CONTINUOUS
 62
    2
 10
216.61697590118365
 20
410.00004000010108
 11
214.61698590118385
 21
408.00003000010111
  0
LINE
  8
_0-0_1
  6
CONTINUOUS
 62
    2
 10
272.61698590118385
 20
410.00004000010108
 11
274.61698590118385
 21
408.00003000010111
  0
LINE
  8
_0-0_1
  6
CONTINUOUS
 62
    2
 10
801.61691590118369
 20
326.00006000010103
 11
801.61691590118369
 21
353.99998000010123
  0
LINE
  8
_0-0_1
  6
CONTINUOUS
 62
    2
 10
798.6169059011836
 20
356.99999000010121
 11
751.1168659011837
 21
356.99999000010121
  0
LINE
  8
_0-0_1
  6
CONTINUOUS
 62
    2
 10
748.11685590118373
 20
326.00006000010103
 11
748.11685590118373
 21
353.99998000010123
  0
LINE
  8
_0-0_1
  6
CONTINUOUS
 62
    2
 10
814.61700590118357
 20
367.99998000010123
 11
814.61700590118357
 21
356.00006000010103
  0
LINE
  8
_0-0_1
  6
CONTINUOUS
 62
    2
 10
831.61696590118345
 20
353.00000000010107
 11
817.61696590118368
 21
353.00000000010107
  0
LINE
  8
_0-0_1
  6
CONTINUOUS
 62
    2
 10
729.20775590118376
 20
309.99993000010102
 11
717.09047590118371
 21
309.99993000010102
  0
LINE
  8
_0-0_1
  6
CONTINUOUS
 62
    2
 10
227.61697590118365
 20
326.00006000010103
 11
227.61697590118365
 21
374.00000000010107
  0
LINE
  8
_0-0_1
  6
CONTINUOUS
 62
    2
 10
262.61698590118385
 20
326.00006000010103
 11
262.61698590118385
 21
374.00000000010107
  0
LINE
  8
_0-0_1
  6
CONTINUOUS
 62
    2
 10
225.61698590118385
 20
410.00004000010108
 11
216.61697590118365
 21
410.00004000010108
  0
LINE
  8
_0-0_1
  6
CONTINUOUS
 62
    2
 10
228.61698590118385
 20
393.00006000010103
 11
228.61698590118385
 21
407.00003000010111
  0
LINE
  8
_0-0_1
  6
CONTINUOUS
 62
    2
 10
257.61698590118385
 20
390.00005000010117
 11
231.61697590118365
 21
390.00005000010117
  0
LINE
  8
_0-0_1
  6
CONTINUOUS
 62
    2
 10
263.61698590118385
 20
410.00004000010108
 11
272.61698590118385
 21
410.00004000010108
  0
LINE
  8
_0-0_1
  6
CONTINUOUS
 62
    2
 10
260.61698590118385
 20
407.00003000010111
 11
260.61698590118385
 21
393.00006000010103
  0
ARC
  8
_0-0_1
  6
CONTINUOUS
 62
    2
 10
831.61696590118345
 20
349.99999000010098
 40
3
 50
0
 51
90
  0
ARC
  8
_0-0_1
  6
CONTINUOUS
 62
    2
 10
224.61697590118365
 20
319.99999000010121
 40
9.9999996000000007
 50
180
 51
270.36420999999802
  0
ARC
  8
_0-0_1
  6
CONTINUOUS
 62
    2
 10
817.61696590118368
 20
356.00006000010103
 40
3
 50
180
 51
270
  0
ARC
  8
_0-0_1
  6
CONTINUOUS
 62
    2
 10
284.61697590118365
 20
379.99999000010121
 40
9.9999996000000007
 50
180
 51
270
  0
ARC
  8
_0-0_1
  6
CONTINUOUS
 62
    2
 10
817.61696590118368
 20
324.00005000010106
 40
3
 50
90
 51
180
  0
ARC
  8
_0-0_1
  6
CONTINUOUS
 62
    2
 10
831.61696590118345
 20
330.00000000010107
 40
3
 50
270
 51
0
  0
ARC
  8
_0-0_1
  6
CONTINUOUS
 62
    2
 10
394.6168559011835
 20
326.00006000010103
 40
3
 50
270
 51
0
  0
ARC
  8
_0-0_1
  6
CONTINUOUS
 62
    2
 10
413.6169459011835
 20
326.00006000010103
 40
3
 50
180
 51
270
  0
ARC
  8
_0-0_1
  6
CONTINUOUS
 62
    2
 10
278.61698590118385
 20
353.99998000010123
 40
3
 50
90
 51
180
  0
ARC
  8
_0-0_1
  6
CONTINUOUS
 62
    2
 10
732.11700590118357
 20
353.99998000010123
 40
3
 50
0
 51
90
  0
ARC
  8
_0-0_1
  6
CONTINUOUS
 62
    2
 10
413.6169459011835
 20
353.99998000010123
 40
3
 50
90
 51
180
  0
ARC
  8
_0-0_1
  6
CONTINUOUS
 62
    2
 10
327.1168559011835
 20
326.00006000010103
 40
3
 50
270
 51
0
  0
ARC
  8
_0-0_1
  6
CONTINUOUS
 62
    2
 10
259.61692590118355
 20
326.00006000010103
 40
3
 50
270
 51
0
  0
ARC
  8
_0-0_1
  6
CONTINUOUS
 62
    2
 10
230.61698590118385
 20
326.00006000010103
 40
3
 50
180
 51
270
  0
ARC
  8
_0-0_1
  6
CONTINUOUS
 62
    2
 10
481.11701590118355
 20
353.99998000010123
 40
3
 50
90
 51
180
  0
ARC
  8
_0-0_1
  6
CONTINUOUS
 62
    2
 10
259.61692590118355
 20
374.00000000010107
 40
3
 50
0
 51
90
  0
ARC
  8
_0-0_1
  6
CONTINUOUS
 62
    2
 10
278.61698590118385
 20
326.00006000010103
 40
3
 50
180
 51
270
  0
ARC
  8
_0-0_1
  6
CONTINUOUS
 62
    2
 10
230.61698590118385
 20
374.00000000010107
 40
3
 50
90
 51
180
  0
ARC
  8
_0-0_1
  6
CONTINUOUS
 62
    2
 10
548.61696590118345
 20
326.00006000010103
 40
3
 50
180
 51
270
  0
ARC
  8
_0-0_1
  6
CONTINUOUS
 62
    2
 10
597.1169559011837
 20
353.99998000010123
 40
3
 50
0
 51
90
  0
ARC
  8
_0-0_1
  6
CONTINUOUS
 62
    2
 10
751.1168659011837
 20
353.99998000010123
 40
3
 50
90
 51
180
  0
ARC
  8
_0-0_1
  6
CONTINUOUS
 62
    2
 10
664.6169059011836
 20
326.00006000010103
 40
3
 50
270
 51
0
  0
ARC
  8
_0-0_1
  6
CONTINUOUS
 62
    2
 10
664.6169059011836
 20
353.99998000010123
 40
3
 50
0
 51
90
  0
ARC
  8
_0-0_1
  6
CONTINUOUS
 62
    2
 10
327.1168559011835
 20
353.99998000010123
 40
3
 50
0
 51
90
  0
ARC
  8
_0-0_1
  6
CONTINUOUS
 62
    2
 10
683.61691590118357
 20
326.00006000010103
 40
3
 50
180
 51
270
  0
ARC
  8
_0-0_1
  6
CONTINUOUS
 62
    2
 10
751.1168659011837
 20
326.00006000010103
 40
3
 50
180
 51
270
  0
ARC
  8
_0-0_1
  6
CONTINUOUS
 62
    2
 10
798.6169059011836
 20
326.00006000010103
 40
3
 50
270
 51
0
  0
ARC
  8
_0-0_1
  6
CONTINUOUS
 62
    2
 10
616.11696590118345
 20
353.99998000010123
 40
3
 50
90
 51
180
  0
ARC
  8
_0-0_1
  6
CONTINUOUS
 62
    2
 10
732.11700590118357
 20
326.00006000010103
 40
3
 50
270
 51
0
  0
ARC
  8
_0-0_1
  6
CONTINUOUS
 62
    2
 10
798.6169059011836
 20
353.99998000010123
 40
3
 50
0
 51
90
  0
ARC
  8
_0-0_1
  6
CONTINUOUS
 62
    2
 10
597.1169559011837
 20
326.00006000010103
 40
3
 50
270
 51
0
  0
ARC
  8
_0-0_1
  6
CONTINUOUS
 62
    2
 10
462.11688590118365
 20
326.00006000010103
 40
3
 50
270
 51
0
  0
ARC
  8
_0-0_1
  6
CONTINUOUS
 62
    2
 10
462.11688590118365
 20
353.99998000010123
 40
3
 50
0
 51
90
  0
ARC
  8
_0-0_1
  6
CONTINUOUS
 62
    2
 10
481.11701590118355
 20
326.00006000010103
 40
3
 50
180
 51
270
  0
ARC
  8
_0-0_1
  6
CONTINUOUS
 62
    2
 10
394.6168559011835
 20
353.99998000010123
 40
3
 50
0
 51
90
  0
ARC
  8
_0-0_1
  6
CONTINUOUS
 62
    2
 10
346.11697590118365
 20
353.99998000010123
 40
3
 50
90
 51
180
  0
ARC
  8
_0-0_1
  6
CONTINUOUS
 62
    2
 10
548.61696590118345
 20
353.99998000010123
 40
3
 50
90
 51
180
  0
ARC
  8
_0-0_1
  6
CONTINUOUS
 62
    2
 10
683.61691590118357
 20
353.99998000010123
 40
3
 50
90
 51
180
  0
ARC
  8
_0-0_1
  6
CONTINUOUS
 62
    2
 10
616.11696590118345
 20
326.00006000010103
 40
3
 50
180
 51
270
  0
ARC
  8
_0-0_1
  6
CONTINUOUS
 62
    2
 10
529.6169559011837
 20
353.99998000010123
 40
3
 50
0
 51
90
  0
ARC
  8
_0-0_1
  6
CONTINUOUS
 62
    2
 10
346.11697590118365
 20
326.00006000010103
 40
3
 50
180
 51
270
  0
ARC
  8
_0-0_1
  6
CONTINUOUS
 62
    2
 10
529.6169559011837
 20
326.00006000010103
 40
3
 50
270
 51
0
  0
ARC
  8
_0-0_1
  6
CONTINUOUS
 62
    2
 10
225.61698590118385
 20
407.00003000010111
 40
3
 50
0
 51
90
  0
ARC
  8
_0-0_1
  6
CONTINUOUS
 62
    2
 10
231.61697590118365
 20
393.00006000010103
 40
3
 50
180
 51
270
  0
ARC
  8
_0-0_1
  6
CONTINUOUS
 62
    2
 10
257.61698590118385
 20
393.00006000010103
 40
3
 50
270
 51
0
  0
ARC
  8
_0-0_1
  6
CONTINUOUS
 62
    2
 10
263.61698590118385
 20
407.00003000010111
 40
3
 50
90
 51
180
  0
ARC
  8
_0-0_1
  6
CONTINUOUS
 62
    2
 10
2280.477931982286
 20
1986.6123966942141
 40
3
 50
90
 51
180
  0
LINE
  8
_0-0_1
  6
CONTINUOUS
 62
    2
 10
2277.477931982286
 20
1960.6123966942141
 11
2277.477931982286
 21
1986.6123966942141
  0
ARC
  8
_0-0_1
  6
CONTINUOUS
 62
    2
 10
2280.477931982286
 20
1960.6123966942141
 40
3
 50
180
 51
270
  0
ARC
  8
_0-0_1
  6
CONTINUOUS
 62
    2
 10
2262.477931982286
 20
1987.6123966942141
 40
3
 50
0
 51
90
  0
LINE
  8
_0-0_1
  6
CONTINUOUS
 62
    2
 10
2265.477931982286
 20
1959.6123966942141
 11
2265.477931982286
 21
1987.6123966942141
  0
ARC
  8
_0-0_1
  6
CONTINUOUS
 62
    2
 10
2262.477931982286
 20
1959.6123966942141
 40
3
 50
270
 51
0
  0
LINE
  8
_0-0_1
  6
CONTINUOUS
 62
    2
 10
2223.477931982286
 20
1956.6123966942141
 11
2262.477931982286
 21
1956.6123966942141
  0
ARC
  8
_0-0_1
  6
CONTINUOUS
 62
    2
 10
2223.477931982286
 20
1959.6123966942141
 40
3
 50
180
 51
270
  0
LINE
  8
_0-0_1
  6
CONTINUOUS
 62
    2
 10
2220.477931982286
 20
1987.6123966942141
 11
2220.477931982286
 21
1959.6123966942141
  0
LINE
  8
_0-0_1
  6
CONTINUOUS
 62
    2
 10
2223.477931982286
 20
1990.6123966942141
 11
2262.477931982286
 21
1990.6123966942141
  0
ARC
  8
_0-0_1
  6
CONTINUOUS
 62
    2
 10
2223.477931982286
 20
1987.6123966942141
 40
3
 50
90
 51
180
  0
ARC
  8
_0-0_1
  6
CONTINUOUS
 62
    2
 10
2204.977931982286
 20
1987.6123966942141
 40
3
 50
0
 51
90
  0
LINE
  8
_0-0_1
  6
CONTINUOUS
 62
    2
 10
2207.977931982286
 20
1959.6123966942141
 11
2207.977931982286
 21
1987.6123966942141
  0
ARC
  8
_0-0_1
  6
CONTINUOUS
 62
    2
 10
2204.977931982286
 20
1959.6123966942141
 40
3
 50
270
 51
0
  0
LINE
  8
_0-0_1
  6
CONTINUOUS
 62
    2
 10
2168.977931982286
 20
1956.6123966942141
 11
2204.977931982286
 21
1956.6123966942141
  0
ARC
  8
_0-0_1
  6
CONTINUOUS
 62
    2
 10
2168.977931982286
 20
1959.6123966942141
 40
3
 50
180
 51
270
  0
LINE
  8
_0-0_1
  6
CONTINUOUS
 62
    2
 10
2165.977931982286
 20
1987.6123966942141
 11
2165.977931982286
 21
1959.6123966942141
  0
LINE
  8
_0-0_1
  6
CONTINUOUS
 62
    2
 10
2168.977931982286
 20
1990.6123966942141
 11
2204.977931982286
 21
1990.6123966942141
  0
ARC
  8
_0-0_1
  6
CONTINUOUS
 62
    2
 10
2168.977931982286
 20
1987.6123966942141
 40
3
 50
90
 51
180
  0
ARC
  8
_0-0_1
  6
CONTINUOUS
 62
    2
 10
2150.477931982286
 20
1987.6123966942141
 40
3
 50
0
 51
90
  0
LINE
  8
_0-0_1
  6
CONTINUOUS
 62
    2
 10
2153.477931982286
 20
1959.6123966942141
 11
2153.477931982286
 21
1987.6123966942141
  0
ARC
  8
_0-0_1
  6
CONTINUOUS
 62
    2
 10
2150.477931982286
 20
1959.6123966942141
 40
3
 50
270
 51
0
  0
LINE
  8
_0-0_1
  6
CONTINUOUS
 62
    2
 10
2111.477931982286
 20
1956.6123966942141
 11
2150.477931982286
 21
1956.6123966942141
  0
ARC
  8
_0-0_1
  6
CONTINUOUS
 62
    2
 10
2111.477931982286
 20
1959.6123966942141
 40
3
 50
180
 51
270
  0
LINE
  8
_0-0_1
  6
CONTINUOUS
 62
    2
 10
2108.477931982286
 20
1987.6123966942141
 11
2108.477931982286
 21
1959.6123966942141
  0
LINE
  8
_0-0_1
  6
CONTINUOUS
 62
    2
 10
2111.477931982286
 20
1990.6123966942141
 11
2150.477931982286
 21
1990.6123966942141
  0
ARC
  8
_0-0_1
  6
CONTINUOUS
 62
    2
 10
2111.477931982286
 20
1987.6123966942141
 40
3
 50
90
 51
180
  0
ARC
  8
_0-0_1
  6
CONTINUOUS
 62
    2
 10
2092.977931982286
 20
1987.6123966942141
 40
3
 50
0
 51
90
  0
LINE
  8
_0-0_1
  6
CONTINUOUS
 62
    2
 10
2095.977931982286
 20
1959.6123966942141
 11
2095.977931982286
 21
1987.6123966942141
  0
ARC
  8
_0-0_1
  6
CONTINUOUS
 62
    2
 10
2092.977931982286
 20
1959.6123966942141
 40
3
 50
270
 51
0
  0
LINE
  8
_0-0_1
  6
CONTINUOUS
 62
    2
 10
2046.0205726694057
 20
1990.6123966942141
 11
2092.977931982286
 21
1990.6123966942141
  0
LINE
  8
_0-0_1
  6
CONTINUOUS
 62
    2
 10
2295.477931982286
 20
2003.6123966942141
 11
2297.477931982286
 21
2001.6123966942141
  0
LINE
  8
_0-0_1
  6
CONTINUOUS
 62
    2
 10
2297.477931982286
 20
1991.6123966942141
 11
2297.477931982286
 21
2001.6123966942141
  0
LINE
  8
_0-0_1
  6
CONTINUOUS
 62
    2
 10
2295.477931982286
 20
1989.6123966942141
 11
2280.477931982286
 21
1989.6123966942141
  0
LINE
  8
_0-0_1
  6
CONTINUOUS
 62
    2
 10
2297.477931982286
 20
1991.6123966942141
 11
2295.477931982286
 21
1989.6123966942141
  0
LINE
  8
_0-0_1
  6
CONTINUOUS
 62
    2
 10
2295.477931982286
 20
1957.6123966942141
 11
2280.477931982286
 21
1957.6123966942141
  0
LINE
  8
_0-0_1
  6
CONTINUOUS
 62
    2
 10
2295.477931982286
 20
1957.6123966942141
 11
2297.477931982286
 21
1955.6123966942141
  0
LINE
  8
_0-0_1
  6
CONTINUOUS
 62
    2
 10
2297.477931982286
 20
1945.6123966942141
 11
2297.477931982286
 21
1955.6123966942141
  0
LINE
  8
_0-0_1
  6
CONTINUOUS
 62
    2
 10
2297.477931982286
 20
1945.6123966942141
 11
2295.477931982286
 21
1943.6123966942141
  0
ARC
  8
_0-0_1
  6
CONTINUOUS
 62
    2
 10
2019.477931982286
 20
1725.6123966942152
 40
2.9999999999999991
 50
90
 51
180
  0
LINE
  8
_0-0_1
  6
CONTINUOUS
 62
    2
 10
2045.477931982286
 20
1728.6123966942152
 11
2019.477931982286
 21
1728.6123966942152
  0
ARC
  8
_0-0_1
  6
CONTINUOUS
 62
    2
 10
2045.477931982286
 20
1725.6123966942152
 40
2.9999999999999991
 50
0
 51
90
  0
ARC
  8
_0-0_1
  6
CONTINUOUS
 62
    2
 10
2018.477931982286
 20
1743.6123966942141
 40
2.9999999999999991
 50
180
 51
270
  0
LINE
  8
_0-0_1
  6
CONTINUOUS
 62
    2
 10
2046.477931982286
 20
1740.6123966942141
 11
2018.477931982286
 21
1740.6123966942141
  0
ARC
  8
_0-0_1
  6
CONTINUOUS
 62
    2
 10
2046.477931982286
 20
1743.6123966942141
 40
2.9999999999999991
 50
270
 51
0
  0
LINE
  8
_0-0_1
  6
CONTINUOUS
 62
    2
 10
2049.477931982286
 20
1782.6123966942141
 11
2049.477931982286
 21
1743.6123966942141
  0
ARC
  8
_0-0_1
  6
CONTINUOUS
 62
    2
 10
2046.477931982286
 20
1782.6123966942141
 40
2.9999999999999991
 50
0
 51
90
  0
LINE
  8
_0-0_1
  6
CONTINUOUS
 62
    2
 10
2018.477931982286
 20
1785.6123966942141
 11
2046.477931982286
 21
1785.6123966942141
  0
LINE
  8
_0-0_1
  6
CONTINUOUS
 62
    2
 10
2015.477931982286
 20
1782.6123966942141
 11
2015.477931982286
 21
1743.6123966942141
  0
ARC
  8
_0-0_1
  6
CONTINUOUS
 62
    2
 10
2018.477931982286
 20
1782.6123966942141
 40
2.9999999999999991
 50
90
 51
180
  0
ARC
  8
_0-0_1
  6
CONTINUOUS
 62
    2
 10
2018.477931982286
 20
1801.1123966942141
 40
2.9999999999999991
 50
180
 51
270
  0
LINE
  8
_0-0_1
  6
CONTINUOUS
 62
    2
 10
2046.477931982286
 20
1798.1123966942141
 11
2018.477931982286
 21
1798.1123966942141
  0
ARC
  8
_0-0_1
  6
CONTINUOUS
 62
    2
 10
2046.477931982286
 20
1801.1123966942141
 40
2.9999999999999991
 50
270
 51
0
  0
LINE
  8
_0-0_1
  6
CONTINUOUS
 62
    2
 10
2049.477931982286
 20
1837.1123966942141
 11
2049.477931982286
 21
1801.1123966942141
  0
ARC
  8
_0-0_1
  6
CONTINUOUS
 62
    2
 10
2046.477931982286
 20
1837.1123966942141
 40
2.9999999999999991
 50
0
 51
90
  0
LINE
  8
_0-0_1
  6
CONTINUOUS
 62
    2
 10
2018.477931982286
 20
1840.1123966942141
 11
2046.477931982286
 21
1840.1123966942141
  0
LINE
  8
_0-0_1
  6
CONTINUOUS
 62
    2
 10
2015.477931982286
 20
1837.1123966942141
 11
2015.477931982286
 21
1801.1123966942141
  0
ARC
  8
_0-0_1
  6
CONTINUOUS
 62
    2
 10
2018.477931982286
 20
1837.1123966942141
 40
2.9999999999999991
 50
90
 51
180
  0
ARC
  8
_0-0_1
  6
CONTINUOUS
 62
    2
 10
2018.477931982286
 20
1855.6123966942141
 40
2.9999999999999991
 50
180
 51
270
  0
LINE
  8
_0-0_1
  6
CONTINUOUS
 62
    2
 10
2046.477931982286
 20
1852.6123966942141
 11
2018.477931982286
 21
1852.6123966942141
  0
ARC
  8
_0-0_1
  6
CONTINUOUS
 62
    2
 10
2046.477931982286
 20
1855.6123966942141
 40
2.9999999999999991
 50
270
 51
0
  0
LINE
  8
_0-0_1
  6
CONTINUOUS
 62
    2
 10
2049.477931982286
 20
1894.6123966942141
 11
2049.477931982286
 21
1855.6123966942141
  0
ARC
  8
_0-0_1
  6
CONTINUOUS
 62
    2
 10
2046.477931982286
 20
1894.6123966942141
 40
2.9999999999999991
 50
0
 51
90
  0
LINE
  8
_0-0_1
  6
CONTINUOUS
 62
    2
 10
2018.477931982286
 20
1897.6123966942141
 11
2046.477931982286
 21
1897.6123966942141
  0
LINE
  8
_0-0_1
  6
CONTINUOUS
 62
    2
 10
2015.477931982286
 20
1894.6123966942141
 11
2015.477931982286
 21
1855.6123966942141
  0
ARC
  8
_0-0_1
  6
CONTINUOUS
 62
    2
 10
2018.477931982286
 20
1894.6123966942141
 40
2.9999999999999991
 50
90
 51
180
  0
ARC
  8
_0-0_1
  6
CONTINUOUS
 62
    2
 10
2018.477931982286
 20
1913.1123966942141
 40
2.9999999999999991
 50
180
 51
270
  0
LINE
  8
_0-0_1
  6
CONTINUOUS
 62
    2
 10
2046.477931982286
 20
1910.1123966942141
 11
2018.477931982286
 21
1910.1123966942141
  0
ARC
  8
_0-0_1
  6
CONTINUOUS
 62
    2
 10
2046.477931982286
 20
1913.1123966942141
 40
2.9999999999999991
 50
270
 51
0
  0
LINE
  8
_0-0_1
  6
CONTINUOUS
 62
    2
 10
2049.477931982286
 20
1932.0697560070951
 11
2049.477931982286
 21
1913.1123966942141
  0
ARC
  8
_0-0_1
  6
CONTINUOUS
 62
    2
 10
2046.477931982286
 20
1932.0697560070951
 40
2.9999999999999991
 50
0
 51
44.999999999990443
  0
LINE
  8
_0-0_1
  6
CONTINUOUS
 62
    2
 10
2015.477931982286
 20
1960.0697560070962
 11
2015.477931982286
 21
1913.1123966942141
  0
ARC
  8
_0-0_1
  6
CONTINUOUS
 62
    2
 10
2018.477931982286
 20
1960.0697560070962
 40
2.9999999999999991
 50
44.999999999990443
 51
180
  0
ARC
  8
_0-0_1
  6
CONTINUOUS
 62
    2
 10
2046.477931982286
 20
1952.5550373813342
 40
2.9999999999999991
 50
224.99999999999042
 51
0.0000000000000254
  0
ARC
  8
_0-0_1
  6
CONTINUOUS
 62
    2
 10
2018.477931982286
 20
1980.5550373813342
 40
2.9999999999999991
 50
180
 51
224.99999999999039
  0
LINE
  8
_0-0_1
  6
CONTINUOUS
 62
    2
 10
2015.477931982286
 20
1984.1123966942141
 11
2015.477931982286
 21
1980.5550373813342
  0
LINE
  8
_0-0_1
  6
CONTINUOUS
 62
    2
 10
2002.477931982286
 20
1710.6123966942152
 11
2004.4779319822869
 21
1708.6123966942141
  0
LINE
  8
_0-0_1
  6
CONTINUOUS
 62
    2
 10
2014.477931982286
 20
1708.6123966942141
 11
2004.4779319822869
 21
1708.6123966942141
  0
LINE
  8
_0-0_1
  6
CONTINUOUS
 62
    2
 10
2016.477931982286
 20
1710.6123966942152
 11
2016.477931982286
 21
1725.6123966942152
  0
LINE
  8
_0-0_1
  6
CONTINUOUS
 62
    2
 10
2014.477931982286
 20
1708.6123966942141
 11
2016.477931982286
 21
1710.6123966942152
  0
LINE
  8
_0-0_1
  6
CONTINUOUS
 62
    2
 10
2048.477931982286
 20
1710.6123966942152
 11
2048.477931982286
 21
1725.6123966942152
  0
LINE
  8
_0-0_1
  6
CONTINUOUS
 62
    2
 10
2048.477931982286
 20
1710.6123966942152
 11
2050.477931982286
 21
1708.6123966942141
  0
LINE
  8
_0-0_1
  6
CONTINUOUS
 62
    2
 10
2060.477931982286
 20
1708.6123966942141
 11
2050.477931982286
 21
1708.6123966942141
  0
LINE
  8
_0-0_1
  6
CONTINUOUS
 62
    2
 10
2060.477931982286
 20
1708.6123966942141
 11
2062.477931982286
 21
1710.6123966942152
  0
LINE
  8
_0-0_1
  6
CONTINUOUS
 62
    2
 10
2062.477931982286
 20
1710.6123966942152
 11
2062.477931982286
 21
1943.6123966942141
  0
LINE
  8
_0-0_1
  6
CONTINUOUS
 62
    2
 10
2295.477931982286
 20
1943.6123966942141
 11
2062.477931982286
 21
1943.6123966942141
  0
LINE
  8
_0-0_1
  6
CONTINUOUS
 62
    2
 10
2049.477931982286
 20
1956.6123966942141
 11
2062.477931982286
 21
1943.6123966942141
  0
ARC
  8
_0-0_1
  6
CONTINUOUS
 62
    2
 10
2021.977931982286
 20
1987.6123966942141
 40
3
 50
90
 51
190.58422442291263
  0
ARC
  8
_0-0_1
  6
CONTINUOUS
 62
    2
 10
2018.477931982286
 20
1984.1123966942141
 40
2.9999999999999991
 50
79.415775577088112
 51
180
  0
ARC
  8
_0-0_1
  6
CONTINUOUS
 62
    2
 10
2012.477931982286
 20
1993.6123966942141
 40
10
 50
90
 51
180
  0
LINE
  8
_0-0_1
  6
CONTINUOUS
 62
    2
 10
2005.4068641704198
 20
2000.6834645060801
 11
2019.0289741014576
 21
1987.0613545750432
  0
LINE
  8
_0-0_1
  6
CONTINUOUS
 62
    2
 10
2002.477931982286
 20
1993.6123966942141
 11
2002.477931982286
 21
1710.6123966942152
  0
LINE
  8
_0-0_1
  6
CONTINUOUS
 62
    2
 10
2212.477931982286
 20
1940.6123966942141
 11
2212.477931982286
 21
1943.6123966942141
  0
LINE
  8
_0-0_1
  6
CONTINUOUS
 62
    2
 10
2187.477931982286
 20
1926.8494535294922
 11
2187.477931982286
 21
1986.5881075888251
  0
LINE
  8
_0-0_1
  6
CONTINUOUS
 62
    2
 10
2190.4781398317377
 20
1968.6120684240491
 11
2184.4782190124797
 21
1968.6121302840061
  0
LINE
  8
_0-0_1
  6
CONTINUOUS
 62
    2
 10
2187.478179422109
 20
1983.6120560520592
 11
2184.978294894026
 21
1981.1120478040652
  0
LINE
  8
_0-0_1
  6
CONTINUOUS
 62
    2
 10
2187.478179422109
 20
1983.6120560520592
 11
2189.9780639501919
 21
1981.1120478040652
  0
LINE
  8
_0-0_1
  6
CONTINUOUS
 62
    2
 10
2189.9780639501919
 20
1943.812164760621
 11
2189.9780639501919
 21
1981.1120478040652
  0
LINE
  8
_0-0_1
  6
CONTINUOUS
 62
    2
 10
2184.978047454204
 20
1943.812164760621
 11
2184.978294894026
 21
1981.1120478040652
  0
LINE
  8
_0-0_1
  6
CONTINUOUS
 62
    2
 10
2190.4781398317377
 20
1943.8121029006652
 11
2190.4781398317377
 21
1968.6120684240491
  0
LINE
  8
_0-0_1
  6
CONTINUOUS
 62
    2
 10
2190.4778923919148
 20
1943.8121029006652
 11
2193.6780316180548
 21
1940.6120873944362
  0
LINE
  8
_0-0_1
  6
CONTINUOUS
 62
    2
 10
2184.4782190124797
 20
1943.812164760621
 11
2181.2780797863397
 21
1940.6121492543921
  0
LINE
  8
_0-0_1
  6
CONTINUOUS
 62
    2
 10
2184.4779715726577
 20
1943.8120410407103
 11
2184.4782190124797
 21
1968.6121302840061
  0
LINE
  8
_0-0_1
  6
CONTINUOUS
 62
    2
 10
2065.477931982286
 20
1940.6123966942141
 11
2212.477931982286
 21
1940.6123966942141
  0
LINE
  8
_0-0_1
  6
CONTINUOUS
 62
    2
 10
2184.4779715726577
 20
1943.8120410407103
 11
2190.4108112671097
 21
1943.8120410407103
  0
LINE
  8
_0-0_1
  6
CONTINUOUS
 62
    2
 10
2079.240875147008
 20
1818.6123966942141
 11
2019.5022210876759
 21
1818.6123966942141
  0
LINE
  8
_0-0_1
  6
CONTINUOUS
 62
    2
 10
2065.477931982286
 20
1793.6123966942141
 11
2062.477931982286
 21
1793.6123966942141
  0
LINE
  8
_0-0_1
  6
CONTINUOUS
 62
    2
 10
2037.478260252451
 20
1821.6126045436661
 11
2037.4781983924959
 21
1815.6126837244092
  0
LINE
  8
_0-0_1
  6
CONTINUOUS
 62
    2
 10
2022.4782726244416
 20
1818.6126441340371
 11
2024.9782808724358
 21
1816.1127596059541
  0
LINE
  8
_0-0_1
  6
CONTINUOUS
 62
    2
 10
2022.4782726244416
 20
1818.6126441340371
 11
2024.9782808724358
 21
1821.1125286621202
  0
LINE
  8
_0-0_1
  6
CONTINUOUS
 62
    2
 10
2062.2781639158798
 20
1821.1125286621202
 11
2024.9782808724358
 21
1821.1125286621202
  0
LINE
  8
_0-0_1
  6
CONTINUOUS
 62
    2
 10
2062.2781639158798
 20
1816.1125121661312
 11
2024.9782808724358
 21
1816.1127596059541
  0
LINE
  8
_0-0_1
  6
CONTINUOUS
 62
    2
 10
2062.2782257758358
 20
1821.6126045436661
 11
2037.478260252451
 21
1821.6126045436661
  0
LINE
  8
_0-0_1
  6
CONTINUOUS
 62
    2
 10
2062.2782257758358
 20
1821.6123571038431
 11
2065.478241282065
 21
1824.8124963299831
  0
LINE
  8
_0-0_1
  6
CONTINUOUS
 62
    2
 10
2062.2781639158798
 20
1815.6126837244092
 11
2065.478179422108
 21
1812.4125444982692
  0
LINE
  8
_0-0_1
  6
CONTINUOUS
 62
    2
 10
2062.278287635791
 20
1815.6124362845862
 11
2037.4781983924959
 21
1815.6126837244092
  0
LINE
  8
_0-0_1
  6
CONTINUOUS
 62
    2
 10
2065.477931982286
 20
1793.6123966942141
 11
2065.477931982286
 21
1940.6123966942141
  0
LINE
  8
_0-0_1
  6
CONTINUOUS
 62
    2
 10
2062.278287635791
 20
1815.6124362845862
 11
2062.278287635791
 21
1821.5452759790371
  0
ARC
  8
_0-0_1
  6
CONTINUOUS
 62
    2
 10
2053.5352912951666
 20
1959.6123966942141
 40
3
 50
270
 51
44.999999999990457
  0
LINE
  8
_0-0_1
  6
CONTINUOUS
 62
    2
 10
2074.0205726694057
 20
1956.6123966942141
 11
2092.977931982286
 21
1956.6123966942141
  0
ARC
  8
_0-0_1
  6
CONTINUOUS
 62
    2
 10
2074.0205726694057
 20
1959.6123966942141
 40
3
 50
224.99999999999042
 51
270
  0
LINE
  8
_0-0_1
  6
CONTINUOUS
 62
    2
 10
2043.8992523258457
 20
1985.4910763506552
 11
2071.8992523258457
 21
1957.4910763506552
  0
ARC
  8
_0-0_1
  6
CONTINUOUS
 62
    2
 10
2046.0205726694057
 20
1987.6123966942141
 40
3
 50
90
 51
224.99999999999039
  0
LINE
  8
_0-0_1
  6
CONTINUOUS
 62
    2
 10
2027.6566116387257
 20
1989.7337170377741
 11
2055.6566116387266
 21
1961.7337170377741
  0
ARC
  8
_0-0_1
  6
CONTINUOUS
 62
    2
 10
2025.535291295168
 20
1987.6123966942141
 40
3
 50
44.999999999990443
 51
90
  0
LINE
  8
_0-0_1
  6
CONTINUOUS
 62
    2
 10
2049.477931982286
 20
1956.6123966942141
 11
2053.5352912951666
 21
1956.6123966942141
  0
LINE
  8
_0-0_1
  6
CONTINUOUS
 62
    2
 10
2049.477931982286
 20
1952.5550373813342
 11
2049.477931982286
 21
1956.6123966942141
  0
LINE
  8
_0-0_1
  6
CONTINUOUS
 62
    2
 10
2016.3566116387269
 20
1978.4337170377742
 11
2044.3566116387269
 21
1950.4337170377742
  0
LINE
  8
_0-0_1
  6
CONTINUOUS
 62
    2
 10
2012.477931982286
 20
2003.6123966942141
 11
2295.477931982286
 21
2003.6123966942141
  0
LINE
  8
_0-0_1
  6
CONTINUOUS
 62
    2
 10
2025.535291295168
 20
1990.6123966942141
 11
2021.977931982286
 21
1990.6123966942141
  0
LINE
  8
_0-0_1
  6
CONTINUOUS
 62
    2
 10
2020.599252325846
 20
1962.1910763506551
 11
2049.477931982286
 21
1933.3123966942151
  0
LINE
  8
_0-0_1
  6
CONTINUOUS
 62
    2
 10
2297.4778819822868
 20
1252.8124016942152
 11
2297.4778819822868
 21
1261.8124316942151
  0
LINE
  8
_0-0_1
  6
CONTINUOUS
 62
    2
 10
2002.4779219822858
 20
1300.8123916942152
 11
2002.4779219822858
 21
1017.8124016942148
  0
LINE
  8
_0-0_1
  6
CONTINUOUS
 62
    2
 10
2295.4779219822858
 20
1250.8124216942142
 11
2072.4779319822869
 21
1250.8124216942142
  0
LINE
  8
_0-0_1
  6
CONTINUOUS
 62
    2
 10
2051.477911982287
 20
1015.812391694215
 11
2060.4778919822857
 21
1015.812391694215
  0
LINE
  8
_0-0_1
  6
CONTINUOUS
 62
    2
 10
2045.4778919822857
 20
1035.8124116942149
 11
2019.4778819822868
 21
1035.8124116942149
  0
LINE
  8
_0-0_1
  6
CONTINUOUS
 62
    2
 10
2048.4779019822859
 20
1032.8123516942148
 11
2048.4779019822859
 21
1018.8124016942148
  0
LINE
  8
_0-0_1
  6
CONTINUOUS
 62
    2
 10
2016.4779219822867
 20
1032.8123516942148
 11
2016.4779219822867
 21
1018.8124016942148
  0
LINE
  8
_0-0_1
  6
CONTINUOUS
 62
    2
 10
2277.4779619822857
 20
1267.8124016942152
 11
2277.4779619822857
 21
1293.8124116942142
  0
LINE
  8
_0-0_1
  6
CONTINUOUS
 62
    2
 10
2294.4779719822859
 20
1296.8123816942152
 11
2280.4780219822869
 21
1296.8123816942152
  0
LINE
  8
_0-0_1
  6
CONTINUOUS
 62
    2
 10
2013.477911982287
 20
1015.812391694215
 11
2004.4779319822869
 21
1015.812391694215
  0
LINE
  8
_0-0_1
  6
CONTINUOUS
 62
    2
 10
2201.477911982287
 20
1294.8123216942151
 11
2201.477911982287
 21
1266.8124016942152
  0
LINE
  8
_0-0_1
  6
CONTINUOUS
 62
    2
 10
2261.4779619822857
 20
1297.8123816942152
 11
2217.477911982287
 21
1297.8123816942152
  0
LINE
  8
_0-0_1
  6
CONTINUOUS
 62
    2
 10
2264.4779719822859
 20
1294.8123216942151
 11
2264.4779719822859
 21
1266.8124016942152
  0
LINE
  8
_0-0_1
  6
CONTINUOUS
 62
    2
 10
2046.477891982287
 20
1048.8123516942151
 11
2018.4779219822858
 21
1048.8123516942151
  0
LINE
  8
_0-0_1
  6
CONTINUOUS
 62
    2
 10
2295.4779219822858
 20
1250.8124216942142
 11
2297.4778819822868
 21
1252.8124016942152
  0
LINE
  8
_0-0_1
  6
CONTINUOUS
 62
    2
 10
2151.4779419822858
 20
1266.8124016942152
 11
2151.4779419822858
 21
1294.8123216942151
  0
LINE
  8
_0-0_1
  6
CONTINUOUS
 62
    2
 10
2138.4779019822859
 20
1294.8123216942151
 11
2138.4779019822859
 21
1266.8124016942152
  0
LINE
  8
_0-0_1
  6
CONTINUOUS
 62
    2
 10
2214.4779019822859
 20
1294.8123216942151
 11
2214.4779019822859
 21
1266.8124016942152
  0
LINE
  8
_0-0_1
  6
CONTINUOUS
 62
    2
 10
2088.4779319822869
 20
1294.8123216942151
 11
2088.4779319822869
 21
1266.8124016942152
  0
LINE
  8
_0-0_1
  6
CONTINUOUS
 62
    2
 10
2046.477891982287
 20
1098.8124216942151
 11
2018.4779219822858
 21
1098.8124216942151
  0
LINE
  8
_0-0_1
  6
CONTINUOUS
 62
    2
 10
2046.477891982287
 20
1111.8124116942151
 11
2018.4779219822858
 21
1111.8124116942151
  0
LINE
  8
_0-0_1
  6
CONTINUOUS
 62
    2
 10
2046.477891982287
 20
1161.8124016942152
 11
2018.4779219822858
 21
1161.8124016942152
  0
LINE
  8
_0-0_1
  6
CONTINUOUS
 62
    2
 10
2046.477891982287
 20
1174.8124416942142
 11
2018.4779219822858
 21
1174.8124416942142
  0
LINE
  8
_0-0_1
  6
CONTINUOUS
 62
    2
 10
2046.477891982287
 20
1224.8124116942142
 11
2018.4779219822858
 21
1224.8124116942142
  0
LINE
  8
_0-0_1
  6
CONTINUOUS
 62
    2
 10
2049.4779019822859
 20
1095.8124116942151
 11
2049.4779019822859
 21
1051.8124116942149
  0
LINE
  8
_0-0_1
  6
CONTINUOUS
 62
    2
 10
2015.477911982287
 20
1051.8124116942149
 11
2015.477911982287
 21
1095.8124116942151
  0
LINE
  8
_0-0_1
  6
CONTINUOUS
 62
    2
 10
2049.4779019822859
 20
1158.8123716942152
 11
2049.4779019822859
 21
1114.8123716942152
  0
LINE
  8
_0-0_1
  6
CONTINUOUS
 62
    2
 10
2015.477911982287
 20
1114.8123716942152
 11
2015.477911982287
 21
1158.8123716942152
  0
LINE
  8
_0-0_1
  6
CONTINUOUS
 62
    2
 10
2049.4779019822859
 20
1221.8124016942152
 11
2049.4779019822859
 21
1177.8124016942152
  0
LINE
  8
_0-0_1
  6
CONTINUOUS
 62
    2
 10
2135.4779419822858
 20
1297.8123816942152
 11
2091.4779419822858
 21
1297.8123816942152
  0
LINE
  8
_0-0_1
  6
CONTINUOUS
 62
    2
 10
2015.477911982287
 20
1177.8124016942152
 11
2015.477911982287
 21
1221.8124016942152
  0
LINE
  8
_0-0_1
  6
CONTINUOUS
 62
    2
 10
2297.4778819822868
 20
1308.8123716942152
 11
2295.4779219822858
 21
1310.8123716942152
  0
LINE
  8
_0-0_1
  6
CONTINUOUS
 62
    2
 10
2004.4779319822869
 20
1015.812391694215
 11
2002.4779219822858
 21
1017.8124016942148
  0
LINE
  8
_0-0_1
  6
CONTINUOUS
 62
    2
 10
2135.4779419822858
 20
1263.8123716942152
 11
2091.4779419822858
 21
1263.8123716942152
  0
LINE
  8
_0-0_1
  6
CONTINUOUS
 62
    2
 10
2062.4778519822858
 20
1017.8124016942148
 11
2060.4778919822857
 21
1015.812391694215
  0
LINE
  8
_0-0_1
  6
CONTINUOUS
 62
    2
 10
2198.4779519822869
 20
1263.8123716942152
 11
2154.477931982286
 21
1263.8123716942152
  0
LINE
  8
_0-0_1
  6
CONTINUOUS
 62
    2
 10
2198.4779519822869
 20
1297.8123816942152
 11
2154.477931982286
 21
1297.8123816942152
  0
LINE
  8
_0-0_1
  6
CONTINUOUS
 62
    2
 10
2012.477931982286
 20
1310.8123716942152
 11
2295.4779219822858
 21
1310.8123716942152
  0
LINE
  8
_0-0_1
  6
CONTINUOUS
 62
    2
 10
2297.4778819822868
 20
1299.8123916942152
 11
2297.4778819822868
 21
1308.8123716942152
  0
LINE
  8
_0-0_1
  6
CONTINUOUS
 62
    2
 10
2294.4779719822859
 20
1264.8123716942152
 11
2280.4780219822869
 21
1264.8123716942152
  0
LINE
  8
_0-0_1
  6
CONTINUOUS
 62
    2
 10
2072.4779319822869
 20
1297.8123816942152
 11
2059.5188919822858
 21
1297.8123816942152
  0
LINE
  8
_0-0_1
  6
CONTINUOUS
 62
    2
 10
2075.4779419822858
 20
1266.8123816942152
 11
2075.4779419822858
 21
1294.8123716942152
  0
LINE
  8
_0-0_1
  6
CONTINUOUS
 62
    2
 10
2072.4779319822869
 20
1263.8123716942152
 11
2059.7217619822868
 21
1263.8123716942152
  0
LINE
  8
_0-0_1
  6
CONTINUOUS
 62
    2
 10
2043.6841019822868
 20
1278.8061316942151
 11
2057.585471982286
 21
1264.7061416942151
  0
LINE
  8
_0-0_1
  6
CONTINUOUS
 62
    2
 10
2043.6836519822859
 20
1283.0181016942151
 11
2057.3821419822866
 21
1296.9181316942152
  0
LINE
  8
_0-0_1
  6
CONTINUOUS
 62
    2
 10
2034.499281982286
 20
1269.3910216942152
 11
2048.599221982287
 21
1255.2910316942141
  0
LINE
  8
_0-0_1
  6
CONTINUOUS
 62
    2
 10
2016.3566019822856
 20
1255.4910616942152
 11
2030.2566319822859
 21
1269.3910416942151
  0
LINE
  8
_0-0_1
  6
CONTINUOUS
 62
    2
 10
2015.477911982287
 20
1240.8124116942142
 11
2015.477911982287
 21
1253.3697416942152
  0
LINE
  8
_0-0_1
  6
CONTINUOUS
 62
    2
 10
2046.477891982287
 20
1237.8124016942152
 11
2018.4779219822858
 21
1237.8124016942152
  0
LINE
  8
_0-0_1
  6
CONTINUOUS
 62
    2
 10
2049.4779019822859
 20
1240.8124116942142
 11
2049.4779019822859
 21
1253.169711694215
  0
LINE
  8
_0-0_1
  6
CONTINUOUS
 62
    2
 10
2062.4778519822858
 20
1240.8123416942151
 11
2062.4778519822858
 21
1017.8124016942148
  0
LINE
  8
_0-0_1
  6
CONTINUOUS
 62
    2
 10
2261.4779619822857
 20
1263.8123716942152
 11
2217.477911982287
 21
1263.8123716942152
  0
ARC
  8
_0-0_1
  6
CONTINUOUS
 62
    2
 10
2046.477891982287
 20
1221.8124016942152
 40
2.999999799999999
 50
0
 51
90
  0
ARC
  8
_0-0_1
  6
CONTINUOUS
 62
    2
 10
2018.4779219822858
 20
1221.8124016942152
 40
2.999999799999999
 50
90
 51
180
  0
ARC
  8
_0-0_1
  6
CONTINUOUS
 62
    2
 10
2046.477891982287
 20
1177.8124016942152
 40
2.999999799999999
 50
270
 51
0
  0
ARC
  8
_0-0_1
  6
CONTINUOUS
 62
    2
 10
2018.4779219822858
 20
1177.8124016942152
 40
2.999999799999999
 50
180
 51
270
  0
ARC
  8
_0-0_1
  6
CONTINUOUS
 62
    2
 10
2046.477891982287
 20
1158.8123716942152
 40
2.999999799999999
 50
0
 51
90
  0
ARC
  8
_0-0_1
  6
CONTINUOUS
 62
    2
 10
2018.4779219822858
 20
1158.8123716942152
 40
2.999999799999999
 50
90
 51
180
  0
ARC
  8
_0-0_1
  6
CONTINUOUS
 62
    2
 10
2046.477891982287
 20
1114.8123716942152
 40
2.999999799999999
 50
270
 51
0
  0
ARC
  8
_0-0_1
  6
CONTINUOUS
 62
    2
 10
2018.4779219822858
 20
1114.8123716942152
 40
2.999999799999999
 50
180
 51
270
  0
ARC
  8
_0-0_1
  6
CONTINUOUS
 62
    2
 10
2046.477891982287
 20
1095.8124116942151
 40
2.999999799999999
 50
0
 51
90
  0
ARC
  8
_0-0_1
  6
CONTINUOUS
 62
    2
 10
2018.4779219822858
 20
1095.8124116942151
 40
2.999999799999999
 50
90
 51
180
  0
ARC
  8
_0-0_1
  6
CONTINUOUS
 62
    2
 10
2046.477891982287
 20
1051.8124116942149
 40
2.999999799999999
 50
270
 51
0
  0
ARC
  8
_0-0_1
  6
CONTINUOUS
 62
    2
 10
2018.4779219822858
 20
1051.8124116942149
 40
2.999999799999999
 50
180
 51
270
  0
ARC
  8
_0-0_1
  6
CONTINUOUS
 62
    2
 10
2051.477911982287
 20
1018.8124016942148
 40
2.999999799999999
 50
180
 51
270
  0
ARC
  8
_0-0_1
  6
CONTINUOUS
 62
    2
 10
2045.4778919822857
 20
1032.8123516942148
 40
2.999999799999999
 50
0
 51
90
  0
ARC
  8
_0-0_1
  6
CONTINUOUS
 62
    2
 10
2019.4778819822868
 20
1032.8123516942148
 40
2.999999799999999
 50
90
 51
180
  0
ARC
  8
_0-0_1
  6
CONTINUOUS
 62
    2
 10
2013.477911982287
 20
1018.8124016942148
 40
2.999999799999999
 50
270
 51
0
  0
ARC
  8
_0-0_1
  6
CONTINUOUS
 62
    2
 10
2091.4779419822858
 20
1294.8123216942151
 40
2.999999799999999
 50
90
 51
180
  0
ARC
  8
_0-0_1
  6
CONTINUOUS
 62
    2
 10
2135.4779419822858
 20
1294.8123216942151
 40
2.999999799999999
 50
0
 51
90
  0
ARC
  8
_0-0_1
  6
CONTINUOUS
 62
    2
 10
2091.4779419822858
 20
1266.8124016942152
 40
2.999999799999999
 50
180
 51
270
  0
ARC
  8
_0-0_1
  6
CONTINUOUS
 62
    2
 10
2135.4779419822858
 20
1266.8124016942152
 40
2.999999799999999
 50
270
 51
0
  0
ARC
  8
_0-0_1
  6
CONTINUOUS
 62
    2
 10
2154.477931982286
 20
1294.8123216942151
 40
2.999999799999999
 50
90
 51
180
  0
ARC
  8
_0-0_1
  6
CONTINUOUS
 62
    2
 10
2154.477931982286
 20
1266.8124016942152
 40
2.999999799999999
 50
180
 51
270
  0
ARC
  8
_0-0_1
  6
CONTINUOUS
 62
    2
 10
2198.4779519822869
 20
1294.8123216942151
 40
2.999999799999999
 50
0
 51
90
  0
ARC
  8
_0-0_1
  6
CONTINUOUS
 62
    2
 10
2198.4779519822869
 20
1266.8124016942152
 40
2.999999799999999
 50
270
 51
0
  0
ARC
  8
_0-0_1
  6
CONTINUOUS
 62
    2
 10
2217.477911982287
 20
1294.8123216942151
 40
2.999999799999999
 50
90
 51
180
  0
ARC
  8
_0-0_1
  6
CONTINUOUS
 62
    2
 10
2217.477911982287
 20
1266.8124016942152
 40
2.999999799999999
 50
180
 51
270
  0
ARC
  8
_0-0_1
  6
CONTINUOUS
 62
    2
 10
2261.4779619822857
 20
1294.8123216942151
 40
2.999999799999999
 50
0
 51
90
  0
ARC
  8
_0-0_1
  6
CONTINUOUS
 62
    2
 10
2261.4779619822857
 20
1266.8124016942152
 40
2.999999799999999
 50
270
 51
0
  0
ARC
  8
_0-0_1
  6
CONTINUOUS
 62
    2
 10
2280.4780219822869
 20
1293.8124116942142
 40
2.999999799999999
 50
90
 51
180
  0
ARC
  8
_0-0_1
  6
CONTINUOUS
 62
    2
 10
2280.4780219822869
 20
1267.8124016942152
 40
2.999999799999999
 50
180
 51
270
  0
ARC
  8
_0-0_1
  6
CONTINUOUS
 62
    2
 10
2294.4779719822859
 20
1299.8123916942152
 40
2.999999799999999
 50
270
 51
0
  0
ARC
  8
_0-0_1
  6
CONTINUOUS
 62
    2
 10
2294.4779719822859
 20
1261.8124316942151
 40
2.999999799999999
 50
0
 51
90
  0
ARC
  8
_0-0_1
  6
CONTINUOUS
 62
    2
 10
2072.4779319822869
 20
1240.8123416942151
 40
9.9999996000000007
 50
90
 51
180
  0
ARC
  8
_0-0_1
  6
CONTINUOUS
 62
    2
 10
2012.477931982286
 20
1300.8123916942152
 40
9.9999996000000007
 50
90
 51
180
  0
ARC
  8
_0-0_1
  6
CONTINUOUS
 62
    2
 10
2059.7217619822868
 20
1266.8123816942152
 40
3
 50
224.59398999999553
 51
270
  0
ARC
  8
_0-0_1
  6
CONTINUOUS
 62
    2
 10
2046.477891982287
 20
1253.169711694215
 40
3
 50
0
 51
44.999999999997321
  0
ARC
  8
_0-0_1
  6
CONTINUOUS
 62
    2
 10
2059.5188919822858
 20
1294.8123716942152
 40
3
 50
90
 51
135.41838000000226
  0
ARC
  8
_0-0_1
  6
CONTINUOUS
 62
    2
 10
2072.4779319822869
 20
1294.8123716942152
 40
3
 50
0
 51
90
  0
ARC
  8
_0-0_1
  6
CONTINUOUS
 62
    2
 10
2072.4779319822869
 20
1266.8123816942152
 40
3
 50
270
 51
0
  0
ARC
  8
_0-0_1
  6
CONTINUOUS
 62
    2
 10
2045.820421982286
 20
1280.9123416942152
 40
3
 50
135.4187000000056
 51
224.59332000000222
  0
ARC
  8
_0-0_1
  6
CONTINUOUS
 62
    2
 10
2032.3779619822858
 20
1267.2696916942152
 40
3
 50
44.999999999997321
 51
134.99965999999449
  0
ARC
  8
_0-0_1
  6
CONTINUOUS
 62
    2
 10
2018.4779219822858
 20
1253.3697416942152
 40
3
 50
135.00000000000256
 51
179.99999999999997
  0
ARC
  8
_0-0_1
  6
CONTINUOUS
 62
    2
 10
2018.4779219822858
 20
1240.8124116942142
 40
3
 50
180
 51
270
  0
ARC
  8
_0-0_1
  6
CONTINUOUS
 62
    2
 10
2046.477891982287
 20
1240.8124116942142
 40
3
 50
270
 51
0
  0
LINE
  8
_0-0_1
  6
CONTINUOUS
 62
    2
 10
2146.4778519822858
 20
573.21240669420968
 11
2146.4778519822858
 21
601.2124466942098
  0
LINE
  8
_0-0_1
  6
CONTINUOUS
 62
    2
 10
2143.4778419822869
 20
570.2123966942097
 11
2093.4779219822867
 21
570.2123966942097
  0
LINE
  8
_0-0_1
  6
CONTINUOUS
 62
    2
 10
2143.4778419822869
 20
604.21240669420979
 11
2093.4779219822867
 21
604.21240669420979
  0
LINE
  8
_0-0_1
  6
CONTINUOUS
 62
    2
 10
2159.4779919822859
 20
601.2124466942098
 11
2159.4779919822859
 21
573.21240669420968
  0
LINE
  8
_0-0_1
  6
CONTINUOUS
 62
    2
 10
2072.4778519822867
 20
557.21247669420984
 11
2295.4779219822858
 21
557.21247669420984
  0
LINE
  8
_0-0_1
  6
CONTINUOUS
 62
    2
 10
2162.4779019822859
 20
570.2123966942097
 11
2212.4778719822866
 21
570.2123966942097
  0
LINE
  8
_0-0_1
  6
CONTINUOUS
 62
    2
 10
2012.477931982286
 20
617.21240669420979
 11
2295.4779219822858
 21
617.21240669420979
  0
LINE
  8
_0-0_1
  6
CONTINUOUS
 62
    2
 10
2162.4779019822859
 20
604.21240669420979
 11
2212.4778719822866
 21
604.21240669420979
  0
LINE
  8
_0-0_1
  6
CONTINUOUS
 62
    2
 10
2074.4779619822857
 20
604.21240669420979
 11
2059.477911982287
 21
604.21240669420979
  0
LINE
  8
_0-0_1
  6
CONTINUOUS
 62
    2
 10
2077.4779219822867
 20
573.21240669420968
 11
2077.4779219822867
 21
601.2124466942098
  0
LINE
  8
_0-0_1
  6
CONTINUOUS
 62
    2
 10
2018.4779719822859
 20
391.21239669420993
 11
2046.4779219822858
 21
391.21239669420993
  0
LINE
  8
_0-0_1
  6
CONTINUOUS
 62
    2
 10
2015.477911982287
 20
476.21243669420983
 11
2015.477911982287
 21
526.21237669420987
  0
LINE
  8
_0-0_1
  6
CONTINUOUS
 62
    2
 10
2018.4779019822859
 20
460.2123566942098
 11
2046.4779219822858
 21
460.2123566942098
  0
LINE
  8
_0-0_1
  6
CONTINUOUS
 62
    2
 10
2043.6799219822869
 20
589.41436669420989
 11
2057.2779219822869
 21
603.21240669420979
  0
LINE
  8
_0-0_1
  6
CONTINUOUS
 62
    2
 10
2059.912911982286
 20
570.2123966942097
 11
2074.4779619822857
 21
570.2123966942097
  0
LINE
  8
_0-0_1
  6
CONTINUOUS
 62
    2
 10
2030.3604319822866
 20
575.89484669420972
 11
2016.2778919822858
 21
561.81235669420971
  0
LINE
  8
_0-0_1
  6
CONTINUOUS
 62
    2
 10
2062.4778719822866
 20
324.21237669420987
 11
2060.477911982287
 21
322.21239669420993
  0
LINE
  8
_0-0_1
  6
CONTINUOUS
 62
    2
 10
2090.477911982287
 20
601.21234669420983
 11
2090.477911982287
 21
573.21240669420968
  0
LINE
  8
_0-0_1
  6
CONTINUOUS
 62
    2
 10
2004.4779319822869
 20
322.21239669420993
 11
2002.4779219822858
 21
324.21237669420987
  0
LINE
  8
_0-0_1
  6
CONTINUOUS
 62
    2
 10
2060.477911982287
 20
322.21239669420993
 11
2004.4779319822869
 21
322.21239669420993
  0
LINE
  8
_0-0_1
  6
CONTINUOUS
 62
    2
 10
2049.4778819822859
 20
476.21243669420983
 11
2049.4778819822859
 21
526.21237669420987
  0
LINE
  8
_0-0_1
  6
CONTINUOUS
 62
    2
 10
2049.4778819822859
 20
545.21241669420988
 11
2049.4778819822859
 21
559.77738669420978
  0
LINE
  8
_0-0_1
  6
CONTINUOUS
 62
    2
 10
2015.477911982287
 20
545.21241669420988
 11
2015.477911982287
 21
559.61236669420975
  0
LINE
  8
_0-0_1
  6
CONTINUOUS
 62
    2
 10
2015.477911982287
 20
338.21237669420987
 11
2015.477911982287
 21
388.21238669420984
  0
LINE
  8
_0-0_1
  6
CONTINUOUS
 62
    2
 10
2002.4779219822858
 20
607.21241669420988
 11
2002.4779219822858
 21
324.21237669420987
  0
LINE
  8
_0-0_1
  6
CONTINUOUS
 62
    2
 10
2018.4779019822859
 20
335.21236669421
 11
2046.4778719822866
 21
335.21233669420985
  0
LINE
  8
_0-0_1
  6
CONTINUOUS
 62
    2
 10
2049.4778819822859
 20
338.21234669420983
 11
2049.4778819822859
 21
388.21238669420984
  0
LINE
  8
_0-0_1
  6
CONTINUOUS
 62
    2
 10
2046.4778719822866
 20
473.2124466942098
 11
2018.4779019822859
 21
473.2124466942098
  0
LINE
  8
_0-0_1
  6
CONTINUOUS
 62
    2
 10
2048.599221982287
 20
561.89871669420972
 11
2034.6030819822859
 21
575.89484669420972
  0
LINE
  8
_0-0_1
  6
CONTINUOUS
 62
    2
 10
2057.7916119822867
 20
571.09107669420973
 11
2043.6953619822866
 21
585.18722669420993
  0
LINE
  8
_0-0_1
  6
CONTINUOUS
 62
    2
 10
2046.4779219822858
 20
542.21240669420968
 11
2018.4779019822859
 21
542.21240669420968
  0
LINE
  8
_0-0_1
  6
CONTINUOUS
 62
    2
 10
2018.4779019822859
 20
529.21238669420984
 11
2046.4779219822858
 21
529.21238669420984
  0
LINE
  8
_0-0_1
  6
CONTINUOUS
 62
    2
 10
2049.4778819822859
 20
407.2123566942098
 11
2049.4778819822859
 21
457.21239669420993
  0
LINE
  8
_0-0_1
  6
CONTINUOUS
 62
    2
 10
2046.4778719822866
 20
404.21234669420983
 11
2018.4779019822859
 21
404.21234669420983
  0
LINE
  8
_0-0_1
  6
CONTINUOUS
 62
    2
 10
2015.477911982287
 20
407.2123566942098
 11
2015.477911982287
 21
457.2123166942099
  0
LINE
  8
_0-0_1
  6
CONTINUOUS
 62
    2
 10
2281.4780219822869
 20
570.2123966942097
 11
2231.477911982287
 21
570.2123966942097
  0
LINE
  8
_0-0_1
  6
CONTINUOUS
 62
    2
 10
2284.477981982287
 20
601.2124466942098
 11
2284.477981982287
 21
573.21240669420968
  0
LINE
  8
_0-0_1
  6
CONTINUOUS
 62
    2
 10
2297.477931982286
 20
559.21240669420968
 11
2297.477931982286
 21
615.2123966942097
  0
LINE
  8
_0-0_1
  6
CONTINUOUS
 62
    2
 10
2215.477931982286
 20
573.21240669420968
 11
2215.477931982286
 21
601.2124466942098
  0
LINE
  8
_0-0_1
  6
CONTINUOUS
 62
    2
 10
2295.4779219822858
 20
557.21247669420984
 11
2297.477931982286
 21
559.21240669420968
  0
LINE
  8
_0-0_1
  6
CONTINUOUS
 62
    2
 10
2228.4779019822859
 20
601.21234669420983
 11
2228.4779019822859
 21
573.21240669420968
  0
LINE
  8
_0-0_1
  6
CONTINUOUS
 62
    2
 10
2295.4779219822858
 20
617.21240669420979
 11
2297.477931982286
 21
615.2123966942097
  0
LINE
  8
_0-0_1
  6
CONTINUOUS
 62
    2
 10
2231.477911982287
 20
604.21240669420979
 11
2281.4780219822869
 21
604.21240669420979
  0
LINE
  8
_0-0_1
  6
CONTINUOUS
 62
    2
 10
2062.4778719822866
 20
547.2124466942098
 11
2062.4778719822866
 21
324.2124066942099
  0
ARC
  8
_0-0_1
  6
CONTINUOUS
 62
    2
 10
2162.4779019822859
 20
601.21234669420983
 40
2.999999799999999
 50
90
 51
180
  0
ARC
  8
_0-0_1
  6
CONTINUOUS
 62
    2
 10
2162.4779019822859
 20
573.21240669420968
 40
2.999999799999999
 50
180
 51
270
  0
ARC
  8
_0-0_1
  6
CONTINUOUS
 62
    2
 10
2143.4779419822867
 20
601.21234669420983
 40
2.999999799999999
 50
0
 51
90
  0
ARC
  8
_0-0_1
  6
CONTINUOUS
 62
    2
 10
2143.4779419822867
 20
573.21240669420968
 40
2.999999799999999
 50
270
 51
0
  0
ARC
  8
_0-0_1
  6
CONTINUOUS
 62
    2
 10
2162.4779019822859
 20
601.2124466942098
 40
3
 50
90
 51
180
  0
ARC
  8
_0-0_1
  6
CONTINUOUS
 62
    2
 10
2143.4778419822869
 20
601.2124466942098
 40
3
 50
0
 51
90
  0
ARC
  8
_0-0_1
  6
CONTINUOUS
 62
    2
 10
2143.4778419822869
 20
573.21240669420968
 40
3
 50
270
 51
0
  0
ARC
  8
_0-0_1
  6
CONTINUOUS
 62
    2
 10
2046.4779219822858
 20
457.21239669420993
 40
2.999999799999999
 50
0.0000151999988591
 51
90.000015000001497
  0
ARC
  8
_0-0_1
  6
CONTINUOUS
 62
    2
 10
2046.4779219822858
 20
476.21238669420973
 40
2.999999799999999
 50
270
 51
0
  0
ARC
  8
_0-0_1
  6
CONTINUOUS
 62
    2
 10
2018.4779719822859
 20
476.21238669420973
 40
2.999999799999999
 50
180
 51
270.00003000000299
  0
ARC
  8
_0-0_1
  6
CONTINUOUS
 62
    2
 10
2018.4779719822859
 20
457.21239669420993
 40
2.999999799999999
 50
90
 51
180
  0
ARC
  8
_0-0_1
  6
CONTINUOUS
 62
    2
 10
2018.4779719822859
 20
388.21238669420984
 40
2.999999799999999
 50
90
 51
180
  0
ARC
  8
_0-0_1
  6
CONTINUOUS
 62
    2
 10
2018.4779719822859
 20
407.21232669420988
 40
2.999999799999999
 50
180
 51
270.00003000000299
  0
ARC
  8
_0-0_1
  6
CONTINUOUS
 62
    2
 10
2018.4779719822859
 20
526.21237669420987
 40
2.999999799999999
 50
90
 51
180
  0
ARC
  8
_0-0_1
  6
CONTINUOUS
 62
    2
 10
2018.4779219822858
 20
559.61236669420975
 40
2.999999799999999
 50
135.00000000000256
 51
179.99999999999997
  0
ARC
  8
_0-0_1
  6
CONTINUOUS
 62
    2
 10
2046.4779219822858
 20
526.21237669420987
 40
2.999999799999999
 50
0.0000151999988591
 51
90.000015000001497
  0
ARC
  8
_0-0_1
  6
CONTINUOUS
 62
    2
 10
2046.4779219822858
 20
407.21232669420988
 40
2.999999799999999
 50
270
 51
0
  0
ARC
  8
_0-0_1
  6
CONTINUOUS
 62
    2
 10
2059.477911982287
 20
601.21234669420983
 40
2.999999799999999
 50
90
 51
136.2999799999983
  0
ARC
  8
_0-0_1
  6
CONTINUOUS
 62
    2
 10
2074.477911982287
 20
601.21234669420983
 40
2.999999799999999
 50
0
 51
90
  0
ARC
  8
_0-0_1
  6
CONTINUOUS
 62
    2
 10
2093.4779219822867
 20
573.21240669420968
 40
2.999999799999999
 50
180
 51
270
  0
ARC
  8
_0-0_1
  6
CONTINUOUS
 62
    2
 10
2018.4779719822859
 20
338.21229669420984
 40
2.999999799999999
 50
180
 51
270.00003000000299
  0
ARC
  8
_0-0_1
  6
CONTINUOUS
 62
    2
 10
2046.4779219822858
 20
338.21229669420984
 40
2.999999799999999
 50
270
 51
0
  0
ARC
  8
_0-0_1
  6
CONTINUOUS
 62
    2
 10
2046.4779219822858
 20
388.21238669420984
 40
2.999999799999999
 50
0.0000151999988591
 51
90.000015000001497
  0
ARC
  8
_0-0_1
  6
CONTINUOUS
 62
    2
 10
2093.4779219822867
 20
601.21234669420983
 40
2.999999799999999
 50
90
 51
180
  0
ARC
  8
_0-0_1
  6
CONTINUOUS
 62
    2
 10
2074.477911982287
 20
573.21240669420968
 40
2.999999799999999
 50
270
 51
0
  0
ARC
  8
_0-0_1
  6
CONTINUOUS
 62
    2
 10
2074.4779619822857
 20
573.21240669420968
 40
3
 50
270
 51
0
  0
ARC
  8
_0-0_1
  6
CONTINUOUS
 62
    2
 10
2074.4779619822857
 20
601.2124466942098
 40
3
 50
0
 51
90
  0
ARC
  8
_0-0_1
  6
CONTINUOUS
 62
    2
 10
2059.912911982286
 20
573.21240669420968
 40
3
 50
224.99999999999727
 51
270
  0
ARC
  8
_0-0_1
  6
CONTINUOUS
 62
    2
 10
2045.8167119822861
 20
587.30862669420981
 40
3
 50
135.4185300000006
 51
224.9999999999973
  0
ARC
  8
_0-0_1
  6
CONTINUOUS
 62
    2
 10
2045.8203719822859
 20
587.31231669420993
 40
3
 50
135.4182800000014
 51
224.59373000000201
  0
ARC
  8
_0-0_1
  6
CONTINUOUS
 62
    2
 10
2032.481761982287
 20
573.77352669420975
 40
3
 50
44.999999999997321
 51
135.00000000000256
  0
ARC
  8
_0-0_1
  6
CONTINUOUS
 62
    2
 10
2018.4779019822859
 20
545.21241669420988
 40
3
 50
180
 51
270
  0
ARC
  8
_0-0_1
  6
CONTINUOUS
 62
    2
 10
2018.4779019822859
 20
338.21237669420987
 40
3
 50
180
 51
270.00003000000299
  0
ARC
  8
_0-0_1
  6
CONTINUOUS
 62
    2
 10
2046.4778719822866
 20
338.21234669420983
 40
3
 50
270.00003000000299
 51
0.0000151999988972
  0
ARC
  8
_0-0_1
  6
CONTINUOUS
 62
    2
 10
2072.4778519822867
 20
547.2124466942098
 40
10.000000999999999
 50
90
 51
180
  0
ARC
  8
_0-0_1
  6
CONTINUOUS
 62
    2
 10
2012.477931982286
 20
607.21241669420988
 40
10.000000999999999
 50
90
 51
180
  0
ARC
  8
_0-0_1
  6
CONTINUOUS
 62
    2
 10
2046.4779219822858
 20
545.21241669420988
 40
3
 50
270
 51
0
  0
ARC
  8
_0-0_1
  6
CONTINUOUS
 62
    2
 10
2018.4779019822859
 20
457.2123166942099
 40
3
 50
90
 51
180
  0
ARC
  8
_0-0_1
  6
CONTINUOUS
 62
    2
 10
2018.4779019822859
 20
476.21243669420983
 40
3
 50
180
 51
270.00003000000299
  0
ARC
  8
_0-0_1
  6
CONTINUOUS
 62
    2
 10
2046.4779219822858
 20
559.77738669420978
 40
3
 50
0
 51
45.000243999994161
  0
ARC
  8
_0-0_1
  6
CONTINUOUS
 62
    2
 10
2046.4778719822866
 20
476.21243669420983
 40
3
 50
270.00003000000299
 51
0.0000151999988972
  0
ARC
  8
_0-0_1
  6
CONTINUOUS
 62
    2
 10
2046.4778719822866
 20
407.2123566942098
 40
3
 50
270.00003000000299
 51
0.0000151999988972
  0
ARC
  8
_0-0_1
  6
CONTINUOUS
 62
    2
 10
2018.4779019822859
 20
407.2123566942098
 40
3
 50
180
 51
270.00003000000299
  0
ARC
  8
_0-0_1
  6
CONTINUOUS
 62
    2
 10
2072.4779019822859
 20
547.21236669420978
 40
10.000000999999999
 50
90
 51
180
  0
ARC
  8
_0-0_1
  6
CONTINUOUS
 62
    2
 10
2281.4780219822869
 20
573.21240669420968
 40
2.999999799999999
 50
270
 51
0
  0
ARC
  8
_0-0_1
  6
CONTINUOUS
 62
    2
 10
2281.4780219822869
 20
601.21234669420983
 40
2.999999799999999
 50
0
 51
90
  0
ARC
  8
_0-0_1
  6
CONTINUOUS
 62
    2
 10
2231.477911982287
 20
573.21240669420968
 40
2.999999799999999
 50
180
 51
270
  0
ARC
  8
_0-0_1
  6
CONTINUOUS
 62
    2
 10
2231.477911982287
 20
601.21234669420983
 40
2.999999799999999
 50
90
 51
180
  0
ARC
  8
_0-0_1
  6
CONTINUOUS
 62
    2
 10
2212.4779719822859
 20
573.21240669420968
 40
2.999999799999999
 50
270
 51
0
  0
ARC
  8
_0-0_1
  6
CONTINUOUS
 62
    2
 10
2212.4779719822859
 20
601.21234669420983
 40
2.999999799999999
 50
0
 51
90
  0
ARC
  8
_0-0_1
  6
CONTINUOUS
 62
    2
 10
2281.4780219822869
 20
601.2124466942098
 40
3
 50
0
 51
90
  0
ARC
  8
_0-0_1
  6
CONTINUOUS
 62
    2
 10
2212.4778719822866
 20
601.2124466942098
 40
3
 50
0
 51
90
  0
ARC
  8
_0-0_1
  6
CONTINUOUS
 62
    2
 10
2212.4778719822866
 20
573.21240669420968
 40
3
 50
270
 51
0
  0
LINE
  8
_0-a__0-0_
  6
CONTINUOUS
 62
    7
 10
97.310777097415667
 20
2260
 11
97.310777097415667
 21
116
  0
LINE
  8
_0-a__0-0_
  6
CONTINUOUS
 62
    7
 10
1537.3107770974148
 20
2260
 11
1537.3107770974148
 21
116
  0
TEXT
  8
_0-a__0-0_
 62
    7
 10
129.75348430658232
 20
2220.6163739538033
 40
28
 41
1
 50
0
  1
MNY45-6058
  0
LINE
  8
_0-a__0-0_
  6
CONTINUOUS
 62
    7
 10
97.310777097415667
 20
180
 11
1537.3107770974148
 21
180
  0
LINE
  8
_0-a__0-0_
  6
CONTINUOUS
 62
    7
 10
97.310777097415667
 20
116
 11
1537.3107770974148
 21
116
  0
LINE
  8
_0-a__0-0_
  6
CONTINUOUS
 62
    7
 10
497.31077709741567
 20
180
 11
497.31077709741567
 21
116
  0
LINE
  8
_0-a__0-0_
  6
CONTINUOUS
 62
    7
 10
945.31077709741464
 20
180
 11
945.31077709741464
 21
116
  0
LINE
  8
_0-a__0-0_
  6
CONTINUOUS
 62
    7
 10
1345.3107770974157
 20
156
 11
1537.3107770974148
 21
156
  0
LINE
  8
_0-a__0-0_
  6
CONTINUOUS
 62
    7
 10
1345.3107770974157
 20
180
 11
1345.3107770974157
 21
116
  0
LINE
  8
_0-a__0-0_
  6
CONTINUOUS
 62
    7
 10
1441.3107770974148
 20
180
 11
1441.3107770974148
 21
116
  0
LINE
  8
_0-a__0-0_
  6
CONTINUOUS
 62
    7
 10
1822.6892229025857
 20
874.39999999999998
 11
3262.6892229025857
 21
874.39999999999998
  0
LINE
  8
_0-a__0-0_
  6
CONTINUOUS
 62
    7
 10
1822.6892229025857
 20
2260
 11
3262.6892229025857
 21
2260
  0
LINE
  8
_0-a__0-0_
  6
CONTINUOUS
 62
    7
 10
1822.6892229025857
 20
2260
 11
1822.6892229025857
 21
116
  0
LINE
  8
_0-a__0-0_
  6
CONTINUOUS
 62
    7
 10
3262.6892229025857
 20
2260
 11
3262.6892229025866
 21
116
  0
LINE
  8
_0-a__0-0_
  6
CONTINUOUS
 62
    7
 10
1822.6892229025857
 20
1567.2
 11
3262.6892229025857
 21
1567.2
  0
TEXT
  8
_0-a__0-0_
 62
    7
 10
1854.8580559026568
 20
1466.9959952885752
 40
25
 41
0.8
 50
0
  1
中部地方以西での取扱い製品です。
  0
TEXT
  8
_0-a__0-0_
 62
    7
 10
1854.8580559026568
 20
774.19599528857566
 40
25
 41
0.8
 50
0
  1
中部地方以西での取扱い製品です。
  0
TEXT
  8
_0-a__0-0_
 62
    7
 10
1854.8580559026568
 20
2221.0717502510943
 40
28
 41
1
 50
0
  1
MNYS-6030
  0
TEXT
  8
_0-a__0-0_
 62
    7
 10
1854.2097642912686
 20
1526.3218348019122
 40
28
 41
1
 50
0
  1
MNY30-6030D
  0
TEXT
  8
_0-a__0-0_
 62
    7
 10
1855.2876204450808
 20
833.74109496039023
 40
28
 41
1
 50
0
  1
MNY30-6030F
  0
LINE
  8
_0-a__0-0_
  6
CONTINUOUS
 62
    7
 10
1822.6892229025857
 20
180
 11
3262.6892229025866
 21
180
  0
LINE
  8
_0-a__0-0_
  6
CONTINUOUS
 62
    7
 10
1822.6892229025857
 20
116
 11
3262.6892229025866
 21
116
  0
LINE
  8
_0-a__0-0_
  6
CONTINUOUS
 62
    7
 10
2222.6892229025857
 20
180
 11
2222.6892229025857
 21
116
  0
LINE
  8
_0-a__0-0_
  6
CONTINUOUS
 62
    7
 10
2670.6892229025857
 20
180
 11
2670.6892229025857
 21
116
  0
LINE
  8
_0-a__0-0_
  6
CONTINUOUS
 62
    7
 10
3070.6892229025857
 20
156
 11
3262.6892229025866
 21
156
  0
LINE
  8
_0-a__0-0_
  6
CONTINUOUS
 62
    7
 10
3070.6892229025857
 20
180
 11
3070.6892229025857
 21
116
  0
LINE
  8
_0-a__0-0_
  6
CONTINUOUS
 62
    7
 10
3166.6892229025857
 20
180
 11
3166.6892229025857
 21
116
  0
TEXT
  8
_0-a__0-0_
 62
    7
 10
129.4013681134893
 20
1390.5560832343631
 40
28
 41
1
 50
0
  1
MNY45-7558
  0
TEXT
  8
_0-a__0-0_
 62
    7
 10
130.06770284287177
 20
975.63726613216784
 40
28
 41
1
 50
0
  1
MNY30-6015D
  0
TEXT
  8
_0-a__0-0_
 62
    7
 10
129.40136811348884
 20
558.55608323436331
 40
28
 41
1
 50
0
  1
MNY9-6060
  0
TEXT
  8
_0-a__0-0_
 62
    7
 10
129.4013681134893
 20
1806.5560832343631
 40
28
 41
1
 50
0
  1
MNY45-6088
  0
LINE
  8
_0-a__0-0_
  6
CONTINUOUS
 62
    7
 10
97.310777097415667
 20
2260
 11
1537.3107770974148
 21
2260
  0
LINE
  8
_0-a__0-0_
  6
CONTINUOUS
 62
    7
 10
529.31082509741509
 20
2260
 11
529.31082509741509
 21
2212
  0
LINE
  8
_0-a__0-0_
  6
CONTINUOUS
 62
    7
 10
97.310777097415667
 20
2212
 11
529.31082509741509
 21
2212
  0
LINE
  8
_0-a__0-0_
  6
CONTINUOUS
 62
    7
 10
97.310777097415667
 20
1844.0000000000002
 11
1537.3107770974148
 21
1844.0000000000002
  0
LINE
  8
_0-a__0-0_
  6
CONTINUOUS
 62
    7
 10
97.310777097415667
 20
1428.0000000000002
 11
1537.3107770974148
 21
1428.0000000000002
  0
LINE
  8
_0-a__0-0_
  6
CONTINUOUS
 62
    7
 10
97.310777097415667
 20
1012
 11
1537.3107770974148
 21
1012
  0
LINE
  8
_0-a__0-0_
  6
CONTINUOUS
 62
    7
 10
97.310777097415667
 20
596
 11
1537.3107770974148
 21
596
  0
LINE
  8
_0-a__0-0_
  6
CONTINUOUS
 62
    7
 10
97.310777097415667
 20
548
 11
529.31082509741509
 21
548
  0
LINE
  8
_0-a__0-0_
  6
CONTINUOUS
 62
    7
 10
529.31082509741509
 20
596
 11
529.31082509741509
 21
548
  0
LINE
  8
_0-a__0-0_
  6
CONTINUOUS
 62
    7
 10
1822.6892229025857
 20
1519.2
 11
2254.6892709025847
 21
1519.2
  0
LINE
  8
_0-a__0-0_
  6
CONTINUOUS
 62
    7
 10
2254.6892709025847
 20
2260
 11
2254.6892709025847
 21
2212
  0
LINE
  8
_0-a__0-0_
  6
CONTINUOUS
 62
    7
 10
1822.6892229025857
 20
2212
 11
2254.6892709025847
 21
2212
  0
LINE
  8
_0-a__0-0_
  6
CONTINUOUS
 62
    7
 10
2254.6892709025847
 20
874.39999999999998
 11
2254.6892709025847
 21
826.39999999999998
  0
LINE
  8
_0-a__0-0_
  6
CONTINUOUS
 62
    7
 10
2254.6892709025847
 20
1567.2
 11
2254.6892709025847
 21
1519.2
  0
LINE
  8
_0-a__0-0_
  6
CONTINUOUS
 62
    7
 10
97.310777097415667
 20
1380.0000000000002
 11
529.31082509741509
 21
1380.0000000000002
  0
LINE
  8
_0-a__0-0_
  6
CONTINUOUS
 62
    7
 10
529.31082509741509
 20
1428.0000000000002
 11
529.31082509741509
 21
1380.0000000000002
  0
LINE
  8
_0-a__0-0_
  6
CONTINUOUS
 62
    7
 10
97.310777097415667
 20
964
 11
529.31082509741509
 21
964
  0
LINE
  8
_0-a__0-0_
  6
CONTINUOUS
 62
    7
 10
529.31082509741509
 20
1012
 11
529.31082509741509
 21
964
  0
LINE
  8
_0-a__0-0_
  6
CONTINUOUS
 62
    7
 10
97.310777097415667
 20
1796.0000000000002
 11
529.31082509741509
 21
1796.0000000000002
  0
LINE
  8
_0-a__0-0_
  6
CONTINUOUS
 62
    7
 10
529.31082509741509
 20
1844.0000000000002
 11
529.31082509741509
 21
1796.0000000000002
  0
LINE
  8
_0-a__0-0_
  6
CONTINUOUS
 62
    7
 10
1822.6892229025857
 20
826.39999999999998
 11
2254.6892709025847
 21
826.39999999999998
  0
TEXT
  8
_0-a__0-0_
 62
    7
 10
1854.8580559026568
 20
2156.1390539010235
 40
25
 41
0.8
 50
0
  1
制作コーナー
  0
TEXT
  8
_0-9__0-2_LAY
 62
    7
 10
387.86198583682881
 20
1311.4055594603713
 40
16
 41
1
 50
0
  1
52
  0
LINE
  8
_0-9__0-2_LAY
  6
CONTINUOUS
 62
    7
 10
214.61697590118365
 20
1716.2184879693391
 11
1094.6169759011837
 21
1716.2184879693391
  0
LINE
  8
_0-9__0-2_LAY
  6
CONTINUOUS
 62
    7
 10
673.73968590118329
 20
2075.9362424987603
 11
673.73968590118329
 21
2015.9362574987601
  0
LINE
  8
_0-9__0-2_LAY
  6
CONTINUOUS
 62
    7
 10
854.61697590118342
 20
2015.9362574987601
 11
854.61697590118342
 21
2075.9362424987603
  0
LINE
  8
_0-9__0-2_LAY
  6
CONTINUOUS
 62
    7
 10
824.61697590118354
 20
2075.9362424987603
 11
854.61697590118342
 21
2075.9362424987603
  0
LINE
  8
_0-9__0-2_LAY
  6
CONTINUOUS
 62
    7
 10
824.61697590118354
 20
2015.9362574987601
 11
854.61697590118342
 21
2015.9362574987601
  0
LINE
  8
_0-9__0-2_LAY
  6
CONTINUOUS
 62
    7
 10
179.86489590118344
 20
2106.29480249876
 11
174.56163090118343
 21
2100.9915224987599
  0
LINE
  8
_0-9__0-2_LAY
  6
CENTER1
 62
    7
 10
199.61692590118355
 20
2075.9362424987603
 11
290.40120090118353
 21
1985.1519374987602
  0
LINE
  8
_0-9__0-2_LAY
  6
CENTER1
 62
    7
 10
209.99928090118328
 20
2075.9362424987603
 11
199.61692590118355
 21
2075.9362424987603
  0
LINE
  8
_0-9__0-2_LAY
  6
CENTER1
 62
    7
 10
267.99180090118352
 20
2015.9362574987601
 11
199.61692590118355
 21
2015.9362574987601
  0
LINE
  8
_0-9__0-2_LAY
  6
CENTER1
 62
    7
 10
199.61692590118355
 20
2075.9362424987603
 11
199.61692590118355
 21
2066.7612374987602
  0
LINE
  8
_0-9__0-2_LAY
  6
CONTINUOUS
 62
    7
 10
179.86488090118337
 20
2106.29480249876
 11
201.07812090118341
 21
2085.0816074987601
  0
LINE
  8
_0-9__0-2_LAY
  6
CONTINUOUS
 62
    7
 10
174.56163090118343
 20
2100.9915224987599
 11
195.7748559011834
 21
2079.7783274987601
  0
TEXT
  8
_0-9__0-2_LAY
 62
    7
 10
853.32192090118349
 20
2036.2220774987602
 40
16
 41
1
 50
90
  1
60
  0
LINE
  8
_0-9__0-2_LAY
  6
CONTINUOUS
 62
    7
 10
259.61697590118365
 20
1955.9362574987601
 11
214.61697590118365
 21
1955.9362574987601
  0
LINE
  8
_0-9__0-2_LAY
  6
CONTINUOUS
 62
    7
 10
214.61697590118365
 20
2135.936249998761
 11
794.61697590118354
 21
2135.936249998761
  0
LINE
  8
_0-9__0-2_LAY
  6
CONTINUOUS
 62
    7
 10
285.6169059011836
 20
2135.936249998761
 11
285.6169059011836
 21
2105.9362424987603
  0
LINE
  8
_0-9__0-2_LAY
  6
CONTINUOUS
 62
    7
 10
298.61694090118363
 20
2135.936249998761
 11
298.61694090118363
 21
2105.9362424987603
  0
LINE
  8
_0-9__0-2_LAY
  6
CONTINUOUS
 62
    7
 10
353.61693090118342
 20
2135.936249998761
 11
353.61693090118342
 21
2105.9362424987603
  0
LINE
  8
_0-9__0-2_LAY
  6
CONTINUOUS
 62
    7
 10
366.61687590118345
 20
2135.936249998761
 11
366.61687590118345
 21
2105.9362424987603
  0
LINE
  8
_0-9__0-2_LAY
  6
CONTINUOUS
 62
    7
 10
421.6168959011834
 20
2135.936249998761
 11
421.6168959011834
 21
2105.9362424987603
  0
TEXT
  8
_0-9__0-2_LAY
 62
    7
 10
383.33383908536234
 20
2138.230320525056
 40
16
 41
1
 50
0
  1
55
  0
LINE
  8
_0-9__0-2_LAY
  6
CONTINUOUS
 62
    7
 10
434.61690090118373
 20
2135.936249998761
 11
434.61690090118373
 21
2105.9362424987603
  0
LINE
  8
_0-9__0-2_LAY
  6
CONTINUOUS
 62
    7
 10
489.6169059011836
 20
2135.936249998761
 11
489.6169059011836
 21
2105.9362424987603
  0
LINE
  8
_0-9__0-2_LAY
  6
CONTINUOUS
 62
    7
 10
502.6168659011837
 20
2135.936249998761
 11
502.6168659011837
 21
2105.9362424987603
  0
LINE
  8
_0-9__0-2_LAY
  6
CONTINUOUS
 62
    7
 10
557.61687090118357
 20
2135.936249998761
 11
557.61687090118357
 21
2105.9362424987603
  0
TEXT
  8
_0-9__0-2_LAY
 62
    7
 10
519.33382158536278
 20
2138.230320525056
 40
16
 41
1
 50
0
  1
55
  0
LINE
  8
_0-9__0-2_LAY
  6
CONTINUOUS
 62
    7
 10
570.61689090118352
 20
2135.936249998761
 11
570.61689090118352
 21
2105.9362424987603
  0
LINE
  8
_0-9__0-2_LAY
  6
CONTINUOUS
 62
    7
 10
625.61688090118332
 20
2135.936249998761
 11
625.61688090118332
 21
2105.9362424987603
  0
TEXT
  8
_0-9__0-2_LAY
 62
    7
 10
587.3338390853628
 20
2138.230320525056
 40
16
 41
1
 50
0
  1
55
  0
LINE
  8
_0-9__0-2_LAY
  6
CONTINUOUS
 62
    7
 10
638.61684090118342
 20
2135.936249998761
 11
638.61684090118342
 21
2105.9362424987603
  0
LINE
  8
_0-9__0-2_LAY
  6
CONTINUOUS
 62
    7
 10
693.61683090118379
 20
2135.936249998761
 11
693.61683090118379
 21
2105.9362424987603
  0
TEXT
  8
_0-9__0-2_LAY
 62
    7
 10
655.33378908536292
 20
2138.230320525056
 40
16
 41
1
 50
0
  1
55
  0
LINE
  8
_0-9__0-2_LAY
  6
CONTINUOUS
 62
    7
 10
706.61686590118359
 20
2135.936249998761
 11
706.61686590118359
 21
2105.9362424987603
  0
LINE
  8
_0-9__0-2_LAY
  6
CONTINUOUS
 62
    7
 10
761.6168559011835
 20
2135.936249998761
 11
761.6168559011835
 21
2105.9362424987603
  0
TEXT
  8
_0-9__0-2_LAY
 62
    7
 10
723.33381408536252
 20
2138.230320525056
 40
16
 41
1
 50
0
  1
55
  0
LINE
  8
_0-9__0-2_LAY
  6
CONTINUOUS
 62
    7
 10
774.61689090118364
 20
2135.936249998761
 11
774.61689090118364
 21
2105.9362424987603
  0
TEXT
  8
_0-9__0-2_LAY
 62
    7
 10
757.33382658536277
 20
2138.230320525056
 40
16
 41
1
 50
0
  1
13
  0
LINE
  8
_0-9__0-2_LAY
  6
CONTINUOUS
 62
    7
 10
794.61697590118354
 20
2135.936249998761
 11
794.61697590118354
 21
2105.9362424987603
  0
LINE
  8
_0-9__0-2_LAY
  6
CONTINUOUS
 62
    7
 10
199.61692590118355
 20
1935.9362574987601
 11
794.61697590118354
 21
1935.9362574987601
  0
LINE
  8
_0-9__0-2_LAY
  6
CONTINUOUS
 62
    7
 10
214.61697590118365
 20
1935.9362574987601
 11
214.61697590118365
 21
1985.9362574987601
  0
LINE
  8
_0-9__0-2_LAY
  6
CONTINUOUS
 62
    7
 10
794.61697590118354
 20
1915.9362574987601
 11
794.61697590118354
 21
1985.9362574987601
  0
TEXT
  8
_0-9__0-2_LAY
 62
    7
 10
489.61697590118365
 20
1936.9362574987601
 40
16
 41
1
 50
0
  1
580
  0
LINE
  8
_0-9__0-2_LAY
  6
CONTINUOUS
 62
    7
 10
214.61697590118365
 20
2135.936249998761
 11
214.61697590118365
 21
2105.9362424987603
  0
LINE
  8
_0-9__0-2_LAY
  6
CONTINUOUS
 62
    7
 10
259.61697590118365
 20
1985.9362574987601
 11
259.61697590118365
 21
1955.9362574987601
  0
TEXT
  8
_0-9__0-2_LAY
 62
    7
 10
161.57249088515482
 20
2092.8259109618575
 40
16
 41
1
 50
44.999800999999991
  1
約7.5
  0
LINE
  8
_0-9__0-2_LAY
  6
CONTINUOUS
 62
    7
 10
199.61692590118355
 20
1915.9362574987601
 11
199.61692590118355
 21
1985.9362574987601
  0
LINE
  8
_0-9__0-2_LAY
  6
CONTINUOUS
 62
    7
 10
199.01695607397232
 20
1496.2184879693391
 11
199.01695607397232
 21
1566.2184879693391
  0
LINE
  8
_0-9__0-2_LAY
  6
CONTINUOUS
 62
    7
 10
1094.6169759011837
 20
1516.2184879693391
 11
199.01695607397232
 21
1516.2184879693391
  0
LINE
  8
_0-9__0-2_LAY
  6
CONTINUOUS
 62
    7
 10
1154.6169759011827
 20
1596.2184879693391
 11
1124.6169759011837
 21
1596.2184879693391
  0
LINE
  8
_0-9__0-2_LAY
  6
CONTINUOUS
 62
    7
 10
1154.6169759011827
 20
1656.2184879693391
 11
1124.6169759011837
 21
1656.2184879693391
  0
LINE
  8
_0-9__0-2_LAY
  6
CONTINUOUS
 62
    7
 10
1154.6169759011827
 20
1656.2184879693391
 11
1154.6169759011827
 21
1596.2184879693391
  0
TEXT
  8
_0-9__0-2_LAY
 62
    7
 10
1153.1169759011837
 20
1617.3434879693391
 40
16
 41
1
 50
90
  1
60
  0
LINE
  8
_0-9__0-2_LAY
  6
CONTINUOUS
 62
    7
 10
1094.6169759011837
 20
1496.2184879693391
 11
1094.6169759011837
 21
1566.2184879693391
  0
TEXT
  8
_0-9__0-2_LAY
 62
    7
 10
638.29703722721115
 20
1519.6313057042983
 40
16
 41
1
 50
0
  1
880
  0
LINE
  8
_0-9__0-2_LAY
  6
CONTINUOUS
 62
    7
 10
214.01695607397232
 20
1536.2184879693391
 11
259.61697590118411
 21
1536.2184879693391
  0
LINE
  8
_0-9__0-2_LAY
  6
CONTINUOUS
 62
    7
 10
1094.6169759011837
 20
1716.2184879693391
 11
1094.6169759011837
 21
1686.2184879693391
  0
LINE
  8
_0-9__0-2_LAY
  6
CONTINUOUS
 62
    7
 10
1042.6169560739727
 20
1656.2184879693391
 11
1042.6169560739727
 21
1596.2184879693391
  0
TEXT
  8
_0-9__0-2_LAY
 62
    7
 10
1041.1169560739727
 20
1616.8434879693391
 40
16
 41
1
 50
90
  1
32
  0
TEXT
  8
_0-9__0-2_LAY
 62
    7
 10
1041.1169560739727
 20
1593.8434879693391
 40
16
 41
1
 50
90
  1
14
  0
TEXT
  8
_0-9__0-2_LAY
 62
    7
 10
1041.0568460125178
 20
1639.7813081689471
 40
16
 41
1
 50
90
  1
14
  0
LINE
  8
_0-9__0-2_LAY
  6
CONTINUOUS
 62
    7
 10
214.61697590118365
 20
1716.2184879693391
 11
214.61697590118365
 21
1686.2184879693391
  0
LINE
  8
_0-9__0-2_LAY
  6
CONTINUOUS
 62
    7
 10
290.61695607397269
 20
1716.2184879693391
 11
290.61695607397269
 21
1686.2184879693391
  0
LINE
  8
_0-9__0-2_LAY
  6
CONTINUOUS
 62
    7
 10
304.61695607397269
 20
1716.2184879693391
 11
304.61695607397269
 21
1686.2184879693391
  0
TEXT
  8
_0-9__0-2_LAY
 62
    7
 10
288.36695607397269
 20
1718.6391889106321
 40
16
 41
1
 50
0
  1
14
  0
LINE
  8
_0-9__0-2_LAY
  6
CONTINUOUS
 62
    7
 10
360.61695607397269
 20
1716.2184879693391
 11
360.61695607397269
 21
1686.2184879693391
  0
TEXT
  8
_0-9__0-2_LAY
 62
    7
 10
323.36695607397269
 20
1718.6391889106321
 40
16
 41
1
 50
0
  1
56
  0
LINE
  8
_0-9__0-2_LAY
  6
CONTINUOUS
 62
    7
 10
374.61695607397269
 20
1716.2184879693391
 11
374.61695607397269
 21
1686.2184879693391
  0
TEXT
  8
_0-9__0-2_LAY
 62
    7
 10
358.36695607397269
 20
1718.6391889106321
 40
16
 41
1
 50
0
  1
14
  0
LINE
  8
_0-9__0-2_LAY
  6
CONTINUOUS
 62
    7
 10
430.61695607397269
 20
1716.2184879693391
 11
430.61695607397269
 21
1686.2184879693391
  0
TEXT
  8
_0-9__0-2_LAY
 62
    7
 10
393.36695607397269
 20
1718.6391889106321
 40
16
 41
1
 50
0
  1
56
  0
LINE
  8
_0-9__0-2_LAY
  6
CONTINUOUS
 62
    7
 10
444.61695607397269
 20
1716.2184879693391
 11
444.61695607397269
 21
1686.2184879693391
  0
TEXT
  8
_0-9__0-2_LAY
 62
    7
 10
428.36695607397269
 20
1718.6391889106321
 40
16
 41
1
 50
0
  1
14
  0
LINE
  8
_0-9__0-2_LAY
  6
CONTINUOUS
 62
    7
 10
500.61695607397269
 20
1716.2184879693391
 11
500.61695607397269
 21
1686.2184879693391
  0
TEXT
  8
_0-9__0-2_LAY
 62
    7
 10
463.36695607397269
 20
1718.6391889106321
 40
16
 41
1
 50
0
  1
56
  0
LINE
  8
_0-9__0-2_LAY
  6
CONTINUOUS
 62
    7
 10
514.61695607397269
 20
1716.2184879693391
 11
514.61695607397269
 21
1686.2184879693391
  0
TEXT
  8
_0-9__0-2_LAY
 62
    7
 10
498.36695607397269
 20
1718.6391889106321
 40
16
 41
1
 50
0
  1
14
  0
LINE
  8
_0-9__0-2_LAY
  6
CONTINUOUS
 62
    7
 10
570.61695607397269
 20
1716.2184879693391
 11
570.61695607397269
 21
1686.2184879693391
  0
TEXT
  8
_0-9__0-2_LAY
 62
    7
 10
533.36695607397314
 20
1718.6391889106321
 40
16
 41
1
 50
0
  1
56
  0
LINE
  8
_0-9__0-2_LAY
  6
CONTINUOUS
 62
    7
 10
584.61695607397269
 20
1716.2184879693391
 11
584.61695607397269
 21
1686.2184879693391
  0
TEXT
  8
_0-9__0-2_LAY
 62
    7
 10
568.36695607397269
 20
1718.6391889106321
 40
16
 41
1
 50
0
  1
14
  0
LINE
  8
_0-9__0-2_LAY
  6
CONTINUOUS
 62
    7
 10
640.61695607397314
 20
1716.2184879693391
 11
640.61695607397314
 21
1686.2184879693391
  0
TEXT
  8
_0-9__0-2_LAY
 62
    7
 10
603.36695607397269
 20
1718.6391889106321
 40
16
 41
1
 50
0
  1
56
  0
LINE
  8
_0-9__0-2_LAY
  6
CONTINUOUS
 62
    7
 10
654.61695607397269
 20
1716.2184879693391
 11
654.61695607397269
 21
1686.2184879693391
  0
TEXT
  8
_0-9__0-2_LAY
 62
    7
 10
638.36695607397269
 20
1718.6391889106321
 40
16
 41
1
 50
0
  1
14
  0
LINE
  8
_0-9__0-2_LAY
  6
CONTINUOUS
 62
    7
 10
710.61695607397257
 20
1716.2184879693391
 11
710.61695607397257
 21
1686.2184879693391
  0
TEXT
  8
_0-9__0-2_LAY
 62
    7
 10
673.36695607397257
 20
1718.6391889106321
 40
16
 41
1
 50
0
  1
56
  0
LINE
  8
_0-9__0-2_LAY
  6
CONTINUOUS
 62
    7
 10
724.61695607397291
 20
1716.2184879693391
 11
724.61695607397291
 21
1686.2184879693391
  0
TEXT
  8
_0-9__0-2_LAY
 62
    7
 10
708.36695607397257
 20
1718.6391889106321
 40
16
 41
1
 50
0
  1
14
  0
LINE
  8
_0-9__0-2_LAY
  6
CONTINUOUS
 62
    7
 10
780.61695607397257
 20
1716.2184879693391
 11
780.61695607397257
 21
1686.2184879693391
  0
TEXT
  8
_0-9__0-2_LAY
 62
    7
 10
743.36695607397303
 20
1718.6391889106321
 40
16
 41
1
 50
0
  1
56
  0
LINE
  8
_0-9__0-2_LAY
  6
CONTINUOUS
 62
    7
 10
794.61695607397257
 20
1716.2184879693391
 11
794.61695607397257
 21
1686.2184879693391
  0
TEXT
  8
_0-9__0-2_LAY
 62
    7
 10
778.36695607397246
 20
1718.6391889106321
 40
16
 41
1
 50
0
  1
14
  0
LINE
  8
_0-9__0-2_LAY
  6
CONTINUOUS
 62
    7
 10
850.61695607397257
 20
1716.2184879693391
 11
850.61695607397257
 21
1686.2184879693391
  0
TEXT
  8
_0-9__0-2_LAY
 62
    7
 10
813.36695607397257
 20
1718.6391889106321
 40
16
 41
1
 50
0
  1
56
  0
LINE
  8
_0-9__0-2_LAY
  6
CONTINUOUS
 62
    7
 10
864.61695607397257
 20
1716.2184879693391
 11
864.61695607397257
 21
1686.2184879693391
  0
TEXT
  8
_0-9__0-2_LAY
 62
    7
 10
848.36695607397257
 20
1718.6391889106321
 40
16
 41
1
 50
0
  1
14
  0
LINE
  8
_0-9__0-2_LAY
  6
CONTINUOUS
 62
    7
 10
920.61695607397269
 20
1716.2184879693391
 11
920.61695607397269
 21
1686.2184879693391
  0
TEXT
  8
_0-9__0-2_LAY
 62
    7
 10
883.36695607397257
 20
1718.6391889106321
 40
16
 41
1
 50
0
  1
56
  0
LINE
  8
_0-9__0-2_LAY
  6
CONTINUOUS
 62
    7
 10
934.61695607397269
 20
1716.2184879693391
 11
934.61695607397269
 21
1686.2184879693391
  0
TEXT
  8
_0-9__0-2_LAY
 62
    7
 10
918.36695607397269
 20
1718.6391889106321
 40
16
 41
1
 50
0
  1
14
  0
LINE
  8
_0-9__0-2_LAY
  6
CONTINUOUS
 62
    7
 10
990.6169560739728
 20
1716.2184879693391
 11
990.6169560739728
 21
1686.2184879693391
  0
TEXT
  8
_0-9__0-2_LAY
 62
    7
 10
953.36695607397166
 20
1718.6391889106321
 40
16
 41
1
 50
0
  1
56
  0
LINE
  8
_0-9__0-2_LAY
  6
CONTINUOUS
 62
    7
 10
1004.6169560739728
 20
1716.2184879693391
 11
1004.6169560739728
 21
1686.2184879693391
  0
TEXT
  8
_0-9__0-2_LAY
 62
    7
 10
988.3669560739728
 20
1718.6391889106321
 40
16
 41
1
 50
0
  1
14
  0
LINE
  8
_0-9__0-2_LAY
  6
CONTINUOUS
 62
    7
 10
1060.6169560739727
 20
1716.2184879693391
 11
1060.6169560739727
 21
1686.2184879693391
  0
TEXT
  8
_0-9__0-2_LAY
 62
    7
 10
1023.3669560739728
 20
1718.6391889106321
 40
16
 41
1
 50
0
  1
56
  0
LINE
  8
_0-9__0-2_LAY
  6
CONTINUOUS
 62
    7
 10
1074.6169759011827
 20
1716.2184879693391
 11
1074.6169759011827
 21
1686.2184879693391
  0
TEXT
  8
_0-9__0-2_LAY
 62
    7
 10
1058.3669659875777
 20
1718.6391889106321
 40
16
 41
1
 50
0
  1
14
  0
LINE
  8
_0-9__0-2_LAY
  6
CENTER1
 62
    7
 10
259.01695607397232
 20
1596.2184879693391
 11
199.01699090118382
 21
1596.2184879693391
  0
TEXT
  8
_0-9__0-2_LAY
 62
    7
 10
197.02347425196467
 20
1518.5431029628032
 40
16
 41
1
 50
0
  1
15
  0
ARC
  8
_0-9__0-2_LAY
  6
CENTER1
 62
    7
 10
269.62361090118338
 20
1596.2184879693391
 40
50.382400624695542
 50
143.56099808749951
 51
180
  0
LINE
  8
_0-9__0-2_LAY
  6
CENTER1
 62
    7
 10
229.09149036749295
 20
1626.1439536758182
 11
226.35268258044198
 21
1624.5627022627061
  0
LINE
  8
_0-9__0-2_LAY
  6
CENTER1
 62
    7
 10
229.09149036749295
 20
1626.1439536758182
 11
229.09149036749295
 21
1623.6031221891112
  0
LINE
  8
_0-9__0-2_LAY
  6
CENTER1
 62
    7
 10
219.24121027648789
 20
1596.2184879693391
 11
217.95109250004998
 21
1598.4530375058771
  0
LINE
  8
_0-9__0-2_LAY
  6
CENTER1
 62
    7
 10
219.24121027648789
 20
1596.2184879693391
 11
220.74603166486622
 21
1598.8249150703261
  0
LINE
  8
_0-9__0-2_LAY
  6
CENTER1
 62
    7
 10
199.01695607397278
 20
1656.2184879693391
 11
209.01695607397232
 21
1656.2184879693391
  0
LINE
  8
_0-9__0-2_LAY
  6
CENTER1
 62
    7
 10
199.01695607397278
 20
1656.2184879693391
 11
199.01695607397278
 21
1646.2184879693391
  0
LINE
  8
_0-9__0-2_LAY
  6
CENTER1
 62
    7
 10
199.01695607397232
 20
1656.2184879693391
 11
259.01695607397232
 21
1596.2184879693391
  0
LINE
  8
_0-9__0-2_LAY
  6
CONTINUOUS
 62
    7
 10
855.20276233881032
 20
1174.5254489651752
 11
825.20276233881032
 21
1174.5254489651752
  0
LINE
  8
_0-9__0-2_LAY
  6
CONTINUOUS
 62
    7
 10
855.20276233881032
 20
1249.4921289651752
 11
825.20276233881032
 21
1249.4921289651752
  0
LINE
  8
_0-9__0-2_LAY
  6
CONTINUOUS
 62
    7
 10
855.20276233881032
 20
1249.4921289651752
 11
855.20276233881032
 21
1174.5254489651752
  0
LINE
  8
_0-9__0-2_LAY
  6
CONTINUOUS
 62
    7
 10
200.20276233881077
 20
1094.5254489651752
 11
200.20276233881077
 21
1144.5254489651752
  0
LINE
  8
_0-9__0-2_LAY
  6
CONTINUOUS
 62
    7
 10
795.2027623388102
 20
1074.5254489651752
 11
795.2027623388102
 21
1144.5254489651752
  0
LINE
  8
_0-9__0-2_LAY
  6
CONTINUOUS
 62
    7
 10
306.80276233881023
 20
1309.4921289651752
 11
795.2027623388102
 21
1309.4921289651752
  0
LINE
  8
_0-9__0-2_LAY
  6
CONTINUOUS
 62
    7
 10
358.20276233881032
 20
1309.4921289651752
 11
358.20276233881032
 21
1279.4921289651752
  0
LINE
  8
_0-9__0-2_LAY
  6
CONTINUOUS
 62
    7
 10
373.20276233881032
 20
1309.4921289651752
 11
373.20276233881032
 21
1279.4921289651752
  0
LINE
  8
_0-9__0-2_LAY
  6
CONTINUOUS
 62
    7
 10
425.20276233881032
 20
1309.4921289651752
 11
425.20276233881032
 21
1279.4921289651752
  0
LINE
  8
_0-9__0-2_LAY
  6
CONTINUOUS
 62
    7
 10
440.20276233881032
 20
1309.4921289651752
 11
440.20276233881032
 21
1279.4921289651752
  0
LINE
  8
_0-9__0-2_LAY
  6
CONTINUOUS
 62
    7
 10
492.20276233881032
 20
1309.4921289651752
 11
492.20276233881032
 21
1279.4921289651752
  0
LINE
  8
_0-9__0-2_LAY
  6
CONTINUOUS
 62
    7
 10
507.20276233880986
 20
1309.4921289651752
 11
507.20276233880986
 21
1279.4921289651752
  0
LINE
  8
_0-9__0-2_LAY
  6
CONTINUOUS
 62
    7
 10
559.20276233880986
 20
1309.4921289651752
 11
559.20276233880986
 21
1279.4921289651752
  0
TEXT
  8
_0-9__0-2_LAY
 62
    7
 10
524.37735443411384
 20
1311.7663882382471
 40
16
 41
1
 50
0
  1
52
  0
LINE
  8
_0-9__0-2_LAY
  6
CONTINUOUS
 62
    7
 10
574.20276233880986
 20
1309.4921289651752
 11
574.20276233880986
 21
1279.4921289651752
  0
LINE
  8
_0-9__0-2_LAY
  6
CONTINUOUS
 62
    7
 10
626.20276233880986
 20
1309.4921289651752
 11
626.20276233880986
 21
1279.4921289651752
  0
LINE
  8
_0-9__0-2_LAY
  6
CONTINUOUS
 62
    7
 10
641.20276233881032
 20
1309.4921289651752
 11
641.20276233881032
 21
1279.4921289651752
  0
LINE
  8
_0-9__0-2_LAY
  6
CONTINUOUS
 62
    7
 10
693.20276233880975
 20
1309.4921289651752
 11
693.20276233880975
 21
1279.4921289651752
  0
LINE
  8
_0-9__0-2_LAY
  6
CONTINUOUS
 62
    7
 10
708.20276233880975
 20
1309.4921289651752
 11
708.20276233880975
 21
1279.4921289651752
  0
LINE
  8
_0-9__0-2_LAY
  6
CONTINUOUS
 62
    7
 10
760.20276233880998
 20
1309.4921289651752
 11
760.20276233880998
 21
1279.4921289651752
  0
TEXT
  8
_0-9__0-2_LAY
 62
    7
 10
725.37735443411361
 20
1311.7663882382471
 40
16
 41
1
 50
0
  1
52
  0
LINE
  8
_0-9__0-2_LAY
  6
CONTINUOUS
 62
    7
 10
775.20276233881009
 20
1309.4921289651752
 11
775.20276233881009
 21
1279.4921289651752
  0
LINE
  8
_0-9__0-2_LAY
  6
CONTINUOUS
 62
    7
 10
795.2027623388102
 20
1309.4921289651752
 11
795.2027623388102
 21
1279.4921289651752
  0
LINE
  8
_0-9__0-2_LAY
  6
CONTINUOUS
 62
    7
 10
672.00557434485665
 20
1249.4921289651752
 11
672.00557434485665
 21
1174.5254489651752
  0
TEXT
  8
_0-9__0-2_LAY
 62
    7
 10
671.00593286543892
 20
1232.2652951498351
 40
16
 41
1
 50
90
  1
15
  0
TEXT
  8
_0-9__0-2_LAY
 62
    7
 10
670.66845387646606
 20
1172.5315141016461
 40
16
 41
1
 50
90
  1
15
  0
TEXT
  8
_0-9__0-2_LAY
 62
    7
 10
355.39647707515769
 20
1311.7302145479882
 40
16
 41
1
 50
0
  1
15
  0
TEXT
  8
_0-9__0-2_LAY
 62
    7
 10
556.09395927997321
 20
1311.6384525314882
 40
16
 41
1
 50
0
  1
15
  0
TEXT
  8
_0-9__0-2_LAY
 62
    7
 10
623.1859454608898
 20
1311.6384525314882
 40
16
 41
1
 50
0
  1
15
  0
TEXT
  8
_0-9__0-2_LAY
 62
    7
 10
590.13766740144729
 20
1311.8375385438951
 40
16
 41
1
 50
0
  1
52
  0
TEXT
  8
_0-9__0-2_LAY
 62
    7
 10
488.40471506183712
 20
1311.4393665190821
 40
16
 41
1
 50
0
  1
15
  0
TEXT
  8
_0-9__0-2_LAY
 62
    7
 10
421.51181489332657
 20
1311.0411944942691
 40
16
 41
1
 50
0
  1
15
  0
TEXT
  8
_0-9__0-2_LAY
 62
    7
 10
455.55552301480066
 20
1312.0366245563011
 40
16
 41
1
 50
0
  1
52
  0
TEXT
  8
_0-9__0-2_LAY
 62
    7
 10
455.35643700239416
 20
1312.2357105687072
 40
16
 41
1
 50
0
  1
52
  0
TEXT
  8
_0-9__0-2_LAY
 62
    7
 10
690.36053210601597
 20
1311.6341784461622
 40
16
 41
1
 50
0
  1
15
  0
TEXT
  8
_0-9__0-2_LAY
 62
    7
 10
658.12912714733829
 20
1311.8920296858321
 40
16
 41
1
 50
0
  1
52
  0
LINE
  8
_0-9__0-2_LAY
  6
CONTINUOUS
 62
    7
 10
200.20276233881077
 20
1094.5254489651752
 11
795.2027623388102
 21
1094.5254489651752
  0
TEXT
  8
_0-9__0-2_LAY
 62
    7
 10
488.25276233881004
 20
1096.0254489651752
 40
16
 41
1
 50
0
  1
580
  0
TEXT
  8
_0-9__0-2_LAY
 62
    7
 10
288.24218411373113
 20
1312.7041798108382
 40
16
 41
1
 50
0
  1
15
  0
LINE
  8
_0-9__0-2_LAY
  6
CONTINUOUS
 62
    7
 10
191.73206070114156
 20
1174.5254489651752
 11
200.78637062812095
 21
1174.5254489651752
  0
TEXT
  8
_0-9__0-2_LAY
 62
    7
 10
234.82776233881032
 20
1116.0254489651752
 40
16
 41
1
 50
0
  1
55
  0
LINE
  8
_0-9__0-2_LAY
  6
CONTINUOUS
 62
    7
 10
270.20276233881077
 20
1114.5254489651752
 11
270.20276233881077
 21
1144.5254489651752
  0
LINE
  8
_0-9__0-2_LAY
  6
CONTINUOUS
 62
    7
 10
215.20276233881032
 20
1114.5254489651752
 11
270.20276233881077
 21
1114.5254489651752
  0
LINE
  8
_0-9__0-2_LAY
  6
CONTINUOUS
 62
    7
 10
306.20276233881032
 20
1309.4921289651752
 11
306.20276233881032
 21
1279.4921289651752
  0
LINE
  8
_0-9__0-2_LAY
  6
CONTINUOUS
 62
    7
 10
215.20276233881032
 20
1309.4921289651752
 11
306.20276233881032
 21
1309.4921289651752
  0
TEXT
  8
_0-9__0-2_LAY
 62
    7
 10
244.37735443411384
 20
1311.7663882382471
 40
16
 41
1
 50
0
  1
76
  0
LINE
  8
_0-9__0-2_LAY
  6
CONTINUOUS
 62
    7
 10
291.20276233881032
 20
1309.4921289651752
 11
291.20276233881032
 21
1279.4921289651752
  0
LINE
  8
_0-9__0-2_LAY
  6
CONTINUOUS
 62
    7
 10
215.20276233881032
 20
1309.4921289651752
 11
215.20276233881032
 21
1279.4921289651752
  0
LINE
  8
_0-9__0-2_LAY
  6
CENTER1
 62
    7
 10
285.16944233881031
 20
1174.5254489651752
 11
199.60276233881086
 21
1174.5254489651752
  0
ARC
  8
_0-9__0-2_LAY
  6
CONTINUOUS
 62
    7
 10
274.5694423388104
 20
1174.5254489651752
 40
59.366680000000038
 50
135.00000000000182
 51
180.00000000000003
  0
LINE
  8
_0-9__0-2_LAY
  6
CONTINUOUS
 62
    7
 10
215.20276233881032
 20
1174.5254489651752
 11
216.25253628845849
 21
1178.4432586817231
  0
LINE
  8
_0-9__0-2_LAY
  6
CONTINUOUS
 62
    7
 10
215.20276233881032
 20
1174.5254489651752
 11
214.18490471632776
 21
1178.3241453271551
  0
LINE
  8
_0-9__0-2_LAY
  6
CONTINUOUS
 62
    7
 10
232.59086033427957
 20
1216.5040309697072
 11
230.61946928974339
 21
1213.0894815189831
  0
LINE
  8
_0-9__0-2_LAY
  6
CONTINUOUS
 62
    7
 10
232.59086033427957
 20
1216.5040309697072
 11
229.2704986685635
 21
1214.5870192681991
  0
LINE
  8
_0-9__0-2_LAY
  6
CENTER1
 62
    7
 10
200.20276233881077
 20
1249.4921289651752
 11
288.05534874540217
 21
1161.6395425585831
  0
TEXT
  8
_0-9__0-2_LAY
 62
    7
 10
322.18186826144711
 20
1313.120998620109
 40
16
 41
1
 50
0
  1
52
  0
LINE
  8
_0-9__0-2_LAY
  6
CONTINUOUS
 62
    7
 10
215.20276233881032
 20
1144.5254489651752
 11
215.20276233881032
 21
1094.5254489651752
  0
TEXT
  8
_0-9__0-2_LAY
 62
    7
 10
198.09333926533827
 20
1094.5787898078102
 40
16
 41
1
 50
0
  1
15
  0
TEXT
  8
_0-9__0-2_LAY
 62
    7
 10
757.45424982593056
 20
1311.9064096349732
 40
16
 41
1
 50
0
  1
15
  0
LINE
  8
_0-9__0-2_LAY
  6
CONTINUOUS
 62
    7
 10
136.61703490118362
 20
858.99828514377521
 11
136.61703490118362
 21
708.99831514377513
  0
LINE
  8
_0-9__0-2_LAY
  6
CONTINUOUS
 62
    7
 10
276.62045726585211
 20
648.99831514377524
 11
276.62045726585211
 21
678.99826514377526
  0
LINE
  8
_0-9__0-2_LAY
  6
CONTINUOUS
 62
    7
 10
366.6170559011839
 20
918.99828514377521
 11
216.61697590118365
 21
918.99828514377521
  0
LINE
  8
_0-9__0-2_LAY
  6
CONTINUOUS
 62
    7
 10
216.61697590118365
 20
918.99828514377521
 11
216.61697590118365
 21
888.99828514377521
  0
LINE
  8
_0-9__0-2_LAY
  6
CONTINUOUS
 62
    7
 10
366.6170559011839
 20
918.99828514377521
 11
366.6170559011839
 21
888.99828514377521
  0
LINE
  8
_0-9__0-2_LAY
  6
CONTINUOUS
 62
    7
 10
216.62045726585166
 20
648.99831514377524
 11
216.62045726585166
 21
678.99826514377526
  0
LINE
  8
_0-9__0-2_LAY
  6
CONTINUOUS
 62
    7
 10
216.62045726585166
 20
648.99831514377524
 11
276.62045726585211
 21
648.99831514377524
  0
LINE
  8
_0-9__0-2_LAY
  6
CONTINUOUS
 62
    7
 10
136.61703490118362
 20
708.99831514377513
 11
186.61697590118365
 21
708.99831514377513
  0
LINE
  8
_0-9__0-2_LAY
  6
CONTINUOUS
 62
    7
 10
136.61703490118362
 20
858.99828514377521
 11
186.61697590118365
 21
858.99828514377521
  0
CIRCLE
  8
_0-9__0-2_LAY
  6
CONTINUOUS
 62
    7
 10
366.6170559011839
 20
918.99828514377521
 40
0.6000001000000001
  0
CIRCLE
  8
_0-9__0-2_LAY
  6
CONTINUOUS
 62
    7
 10
216.61697590118365
 20
918.99828514377521
 40
0.6000001000000001
  0
CIRCLE
  8
_0-9__0-2_LAY
  6
CONTINUOUS
 62
    7
 10
216.62045726585166
 20
648.99831514377524
 40
0.6000001000000001
  0
CIRCLE
  8
_0-9__0-2_LAY
  6
CONTINUOUS
 62
    7
 10
276.62045726585211
 20
648.99831514377524
 40
0.6000001000000001
  0
CIRCLE
  8
_0-9__0-2_LAY
  6
CONTINUOUS
 62
    7
 10
136.61703490118362
 20
858.99828514377521
 40
0.6000001000000001
  0
CIRCLE
  8
_0-9__0-2_LAY
  6
CONTINUOUS
 62
    7
 10
136.61703490118362
 20
708.99831514377513
 40
0.6000001000000001
  0
TEXT
  8
_0-9__0-2_LAY
 62
    7
 10
280.51698590118349
 20
919.9982351437751
 40
16
 41
1
 50
0
  1
150
  0
TEXT
  8
_0-9__0-2_LAY
 62
    7
 10
135.61707490118351
 20
772.89830514377525
 40
16
 41
1
 50
90
  1
150
  0
TEXT
  8
_0-9__0-2_LAY
 62
    7
 10
239.42051726585169
 20
649.99828514377521
 40
16
 41
1
 50
0
  1
60
  0
LINE
  8
_0-9__0-2_LAY
  6
CONTINUOUS
 62
    7
 10
214.61698590118385
 20
251.16369000010104
 11
814.61685590118384
 21
251.16369000010104
  0
LINE
  8
_0-9__0-2_LAY
  6
CONTINUOUS
 62
    7
 10
397.6169959011836
 20
280.67980000010107
 11
397.6169959011836
 21
251.16369000010104
  0
LINE
  8
_0-9__0-2_LAY
  6
CONTINUOUS
 62
    7
 10
343.11698590118385
 20
280.67980000010107
 11
343.11698590118385
 21
251.16369000010104
  0
LINE
  8
_0-9__0-2_LAY
  6
CONTINUOUS
 62
    7
 10
330.1169959011836
 20
280.67980000010107
 11
330.1169959011836
 21
251.16369000010104
  0
LINE
  8
_0-9__0-2_LAY
  6
CONTINUOUS
 62
    7
 10
735.11696590118368
 20
280.67980000010107
 11
735.11696590118368
 21
251.16369000010104
  0
LINE
  8
_0-9__0-2_LAY
  6
CONTINUOUS
 62
    7
 10
275.61698590118385
 20
280.67980000010107
 11
275.61698590118385
 21
251.16369000010104
  0
LINE
  8
_0-9__0-2_LAY
  6
CONTINUOUS
 62
    7
 10
214.61698590118385
 20
280.67980000010107
 11
214.61698590118385
 21
231.16369000010104
  0
LINE
  8
_0-9__0-2_LAY
  6
CONTINUOUS
 62
    7
 10
478.11696590118345
 20
280.67980000010107
 11
478.11696590118345
 21
251.16369000010104
  0
LINE
  8
_0-9__0-2_LAY
  6
CONTINUOUS
 62
    7
 10
227.61697590118365
 20
280.67980000010107
 11
227.61697590118365
 21
251.16369000010104
  0
LINE
  8
_0-9__0-2_LAY
  6
CONTINUOUS
 62
    7
 10
262.61698590118385
 20
280.67980000010107
 11
262.61698590118385
 21
251.16369000010104
  0
LINE
  8
_0-9__0-2_LAY
  6
CONTINUOUS
 62
    7
 10
532.6169659011839
 20
280.67980000010107
 11
532.6169659011839
 21
251.16369000010104
  0
LINE
  8
_0-9__0-2_LAY
  6
CONTINUOUS
 62
    7
 10
545.6169559011837
 20
280.67980000010107
 11
545.6169559011837
 21
251.16369000010104
  0
LINE
  8
_0-9__0-2_LAY
  6
CONTINUOUS
 62
    7
 10
680.61685590118373
 20
280.67980000010107
 11
680.61685590118373
 21
251.16369000010104
  0
LINE
  8
_0-9__0-2_LAY
  6
CONTINUOUS
 62
    7
 10
748.11685590118373
 20
280.67980000010107
 11
748.11685590118373
 21
251.16369000010104
  0
LINE
  8
_0-9__0-2_LAY
  6
CONTINUOUS
 62
    7
 10
801.61691590118369
 20
280.67980000010107
 11
801.61691590118369
 21
251.16369000010104
  0
LINE
  8
_0-9__0-2_LAY
  6
CONTINUOUS
 62
    7
 10
667.61686590118359
 20
280.67980000010107
 11
667.61686590118359
 21
251.16369000010104
  0
LINE
  8
_0-9__0-2_LAY
  6
CONTINUOUS
 62
    7
 10
613.1169059011836
 20
280.67980000010107
 11
613.1169059011836
 21
251.16369000010104
  0
LINE
  8
_0-9__0-2_LAY
  6
CONTINUOUS
 62
    7
 10
600.1169659011839
 20
280.67980000010107
 11
600.1169659011839
 21
251.16369000010104
  0
LINE
  8
_0-9__0-2_LAY
  6
CONTINUOUS
 62
    7
 10
184.61698590118385
 20
410.00004000010108
 11
154.61698590118385
 21
410.00004000010108
  0
LINE
  8
_0-9__0-2_LAY
  6
CONTINUOUS
 62
    7
 10
154.61698590118385
 20
309.99998000010112
 11
184.61698590118385
 21
309.99998000010112
  0
LINE
  8
_0-9__0-2_LAY
  6
CONTINUOUS
 62
    7
 10
869.92594590118347
 20
309.99998000010112
 11
869.92594590118347
 21
369.99998000010123
  0
LINE
  8
_0-9__0-2_LAY
  6
CONTINUOUS
 62
    7
 10
889.11920590118359
 20
369.99998000010123
 11
889.11920590118359
 21
309.99998000010112
  0
LINE
  8
_0-9__0-2_LAY
  6
CONTINUOUS
 62
    7
 10
849.92592590118375
 20
326.99999000010098
 11
869.92594590118347
 21
326.99999000010098
  0
LINE
  8
_0-9__0-2_LAY
  6
CONTINUOUS
 62
    7
 10
274.61698590118385
 20
439.35509000010097
 11
274.61698590118385
 21
480.00004000010097
  0
LINE
  8
_0-9__0-2_LAY
  6
CONTINUOUS
 62
    7
 10
228.61697200658136
 20
440.00004000010108
 11
228.6169459011835
 21
460.00009000010118
  0
LINE
  8
_0-9__0-2_LAY
  6
CONTINUOUS
 62
    7
 10
214.61698590118385
 20
460.00004000010108
 11
274.61698590118385
 21
460.00004000010108
  0
LINE
  8
_0-9__0-2_LAY
  6
CONTINUOUS
 62
    7
 10
214.61698590118385
 20
439.35509000010097
 11
214.61698590118385
 21
480.00004000010097
  0
LINE
  8
_0-9__0-2_LAY
  6
CONTINUOUS
 62
    7
 10
465.1169459011835
 20
280.67980000010107
 11
465.1169459011835
 21
251.16369000010104
  0
LINE
  8
_0-9__0-2_LAY
  6
CONTINUOUS
 62
    7
 10
410.6169659011839
 20
280.67980000010107
 11
410.6169659011839
 21
251.16369000010104
  0
LINE
  8
_0-9__0-2_LAY
  6
CONTINUOUS
 62
    7
 10
889.11920590118359
 20
369.99998000010123
 11
849.92592590118375
 21
369.99998000010123
  0
LINE
  8
_0-9__0-2_LAY
  6
CONTINUOUS
 62
    7
 10
849.92592590118375
 20
353.00000000010107
 11
869.92594590118347
 21
353.00000000010107
  0
LINE
  8
_0-9__0-2_LAY
  6
CONTINUOUS
 62
    7
 10
214.61698590118385
 20
480.00004000010097
 11
814.61700590118357
 21
480.00004000010097
  0
LINE
  8
_0-9__0-2_LAY
  6
CONTINUOUS
 62
    7
 10
814.61685590118384
 20
280.67980000010107
 11
814.61685590118361
 21
231.16369000010104
  0
LINE
  8
_0-9__0-2_LAY
  6
CONTINUOUS
 62
    7
 10
834.61687590118368
 20
280.67980000010107
 11
834.61702590118375
 21
231.16369000010104
  0
LINE
  8
_0-9__0-2_LAY
  6
CONTINUOUS
 62
    7
 10
154.61698590118385
 20
309.99998000010112
 11
154.61698590118385
 21
410.00004000010108
  0
LINE
  8
_0-9__0-2_LAY
  6
CONTINUOUS
 62
    7
 10
260.61698590118385
 20
440.00004000010108
 11
260.61698590118385
 21
460.00004000010108
  0
LINE
  8
_0-9__0-2_LAY
  6
CONTINUOUS
 62
    7
 10
849.92592590118375
 20
309.99998000010112
 11
889.11920590118359
 21
309.99998000010112
  0
LINE
  8
_0-9__0-2_LAY
  6
CONTINUOUS
 62
    7
 10
717.09047590118371
 20
309.99993000010102
 11
717.09047590118371
 21
369.99998000010123
  0
LINE
  8
_0-9__0-2_LAY
  6
CONTINUOUS
 62
    7
 10
814.61700590118357
 20
400.00004000010108
 11
814.61700590118357
 21
480.00004000010097
  0
CIRCLE
  8
_0-9__0-2_LAY
  6
CONTINUOUS
 62
    7
 10
814.6169059011836
 20
480.00009000010095
 40
0.6499998999999998
  0
CIRCLE
  8
_0-9__0-2_LAY
  6
CONTINUOUS
 62
    7
 10
274.61693590118375
 20
480.00014000010094
 40
0.6499998999999998
  0
CIRCLE
  8
_0-9__0-2_LAY
  6
CONTINUOUS
 62
    7
 10
274.6169559011837
 20
460.00004000010108
 40
0.6499998999999998
  0
CIRCLE
  8
_0-9__0-2_LAY
  6
CONTINUOUS
 62
    7
 10
260.61702590118375
 20
459.99999000010098
 40
0.6499998999999998
  0
CIRCLE
  8
_0-9__0-2_LAY
  6
CONTINUOUS
 62
    7
 10
228.6169459011835
 20
460.00009000010118
 40
0.6499998999999998
  0
CIRCLE
  8
_0-9__0-2_LAY
  6
CONTINUOUS
 62
    7
 10
214.6170059011838
 20
459.99999000010098
 40
0.6499998999999998
  0
CIRCLE
  8
_0-9__0-2_LAY
  6
CONTINUOUS
 62
    7
 10
214.6169459011835
 20
480.00004000010097
 40
0.6499998999999998
  0
CIRCLE
  8
_0-9__0-2_LAY
  6
CONTINUOUS
 62
    7
 10
214.61698590118385
 20
480.00004000010097
 40
0.6499998999999998
  0
CIRCLE
  8
_0-9__0-2_LAY
  6
CONTINUOUS
 62
    7
 10
154.61694190118351
 20
410.00011000010113
 40
0.6499998999999998
  0
CIRCLE
  8
_0-9__0-2_LAY
  6
CONTINUOUS
 62
    7
 10
154.61704090118383
 20
310.00001000010116
 40
0.6499998999999998
  0
CIRCLE
  8
_0-9__0-2_LAY
  6
CONTINUOUS
 62
    7
 10
214.61698590118385
 20
231.16369000010104
 40
0.6499998999999998
  0
CIRCLE
  8
_0-9__0-2_LAY
  6
CONTINUOUS
 62
    7
 10
227.61692590118355
 20
251.16364000010105
 40
0.6499998999999998
  0
CIRCLE
  8
_0-9__0-2_LAY
  6
CONTINUOUS
 62
    7
 10
262.6169659011839
 20
251.16377000010107
 40
0.6499998999999998
  0
CIRCLE
  8
_0-9__0-2_LAY
  6
CONTINUOUS
 62
    7
 10
275.61698590118385
 20
251.16369000010104
 40
0.6499998999999998
  0
CIRCLE
  8
_0-9__0-2_LAY
  6
CONTINUOUS
 62
    7
 10
330.1169659011839
 20
251.16377000010107
 40
0.6499998999999998
  0
CIRCLE
  8
_0-9__0-2_LAY
  6
CONTINUOUS
 62
    7
 10
343.11698590118385
 20
251.16369000010104
 40
0.6499998999999998
  0
CIRCLE
  8
_0-9__0-2_LAY
  6
CONTINUOUS
 62
    7
 10
397.61696590118345
 20
251.16377000010107
 40
0.6499998999999998
  0
CIRCLE
  8
_0-9__0-2_LAY
  6
CONTINUOUS
 62
    7
 10
410.61698590118385
 20
251.16369000010104
 40
0.6499998999999998
  0
CIRCLE
  8
_0-9__0-2_LAY
  6
CONTINUOUS
 62
    7
 10
465.11696590118345
 20
251.16377000010107
 40
0.6499998999999998
  0
CIRCLE
  8
_0-9__0-2_LAY
  6
CONTINUOUS
 62
    7
 10
478.11698590118385
 20
251.16369000010104
 40
0.6499998999999998
  0
CIRCLE
  8
_0-9__0-2_LAY
  6
CONTINUOUS
 62
    7
 10
532.6169659011839
 20
251.16377000010107
 40
0.6499998999999998
  0
CIRCLE
  8
_0-9__0-2_LAY
  6
CONTINUOUS
 62
    7
 10
545.61700590118335
 20
251.16369000010104
 40
0.6499998999999998
  0
CIRCLE
  8
_0-9__0-2_LAY
  6
CONTINUOUS
 62
    7
 10
600.1169659011839
 20
251.16377000010107
 40
0.6499998999999998
  0
CIRCLE
  8
_0-9__0-2_LAY
  6
CONTINUOUS
 62
    7
 10
613.11700590118335
 20
251.16369000010104
 40
0.6499998999999998
  0
CIRCLE
  8
_0-9__0-2_LAY
  6
CONTINUOUS
 62
    7
 10
667.61696590118368
 20
251.16377000010107
 40
0.6499998999999998
  0
CIRCLE
  8
_0-9__0-2_LAY
  6
CONTINUOUS
 62
    7
 10
680.61700590118369
 20
251.16369000010104
 40
0.6499998999999998
  0
CIRCLE
  8
_0-9__0-2_LAY
  6
CONTINUOUS
 62
    7
 10
735.11696590118368
 20
251.16377000010107
 40
0.6499998999999998
  0
CIRCLE
  8
_0-9__0-2_LAY
  6
CONTINUOUS
 62
    7
 10
748.11700590118357
 20
251.16369000010104
 40
0.6499998999999998
  0
CIRCLE
  8
_0-9__0-2_LAY
  6
CONTINUOUS
 62
    7
 10
801.61696590118356
 20
251.16377000010107
 40
0.6499998999999998
  0
CIRCLE
  8
_0-9__0-2_LAY
  6
CONTINUOUS
 62
    7
 10
814.61700590118357
 20
231.16369000010104
 40
0.6499998999999998
  0
CIRCLE
  8
_0-9__0-2_LAY
  6
CONTINUOUS
 62
    7
 10
834.61702590118375
 20
231.16369000010104
 40
0.6499998999999998
  0
CIRCLE
  8
_0-9__0-2_LAY
  6
CONTINUOUS
 62
    7
 10
869.92594590118347
 20
309.99996000010105
 40
0.6499998999999998
  0
CIRCLE
  8
_0-9__0-2_LAY
  6
CONTINUOUS
 62
    7
 10
889.11920590118359
 20
309.99998000010112
 40
0.6499998999999998
  0
CIRCLE
  8
_0-9__0-2_LAY
  6
CONTINUOUS
 62
    7
 10
869.92594590118347
 20
326.99996000010105
 40
0.6499998999999998
  0
CIRCLE
  8
_0-9__0-2_LAY
  6
CONTINUOUS
 62
    7
 10
869.92594590118347
 20
353.00000000010107
 40
0.6499998999999998
  0
CIRCLE
  8
_0-9__0-2_LAY
  6
CONTINUOUS
 62
    7
 10
869.92589590118359
 20
369.99996000010117
 40
0.6499998999999998
  0
CIRCLE
  8
_0-9__0-2_LAY
  6
CONTINUOUS
 62
    7
 10
889.11935590118378
 20
370.00003000010111
 40
0.6499998999999998
  0
CIRCLE
  8
_0-9__0-2_LAY
  6
CONTINUOUS
 62
    7
 10
717.09047590118371
 20
369.99993000010113
 40
0.6499998999999998
  0
CIRCLE
  8
_0-9__0-2_LAY
  6
CONTINUOUS
 62
    7
 10
717.09047590118371
 20
356.99994000010111
 40
0.6499998999999998
  0
CIRCLE
  8
_0-9__0-2_LAY
  6
CONTINUOUS
 62
    7
 10
717.09057590118357
 20
323.00000000010107
 40
0.6499998999999998
  0
CIRCLE
  8
_0-9__0-2_LAY
  6
CONTINUOUS
 62
    7
 10
717.09057590118357
 20
310.00003000010111
 40
0.6499998999999998
  0
TEXT
  8
_0-9__0-2_LAY
 62
    7
 10
465.36701590118355
 20
252.16370000010102
 40
16
 41
1
 50
0
  1
13
  0
TEXT
  8
_0-9__0-2_LAY
 62
    7
 10
397.8669959011836
 20
252.16370000010102
 40
16
 41
1
 50
0
  1
13
  0
TEXT
  8
_0-9__0-2_LAY
 62
    7
 10
330.3669159011838
 20
252.16370000010102
 40
16
 41
1
 50
0
  1
13
  0
TEXT
  8
_0-9__0-2_LAY
 62
    7
 10
262.86697590118365
 20
252.16370000010102
 40
16
 41
1
 50
0
  1
13
  0
TEXT
  8
_0-9__0-2_LAY
 62
    7
 10
600.36693590118375
 20
252.16370000010102
 40
16
 41
1
 50
0
  1
13
  0
TEXT
  8
_0-9__0-2_LAY
 62
    7
 10
532.86698590118385
 20
252.16370000010102
 40
16
 41
1
 50
0
  1
13
  0
TEXT
  8
_0-9__0-2_LAY
 62
    7
 10
535.1169459011835
 20
481.00004000010108
 40
16
 41
1
 50
0
  1
540
  0
TEXT
  8
_0-9__0-2_LAY
 62
    7
 10
233.97393735363357
 20
481.00004000010108
 40
16
 41
1
 50
0
  1
60
  0
TEXT
  8
_0-9__0-2_LAY
 62
    7
 10
667.86684590118375
 20
252.16370000010102
 40
16
 41
1
 50
0
  1
13
  0
TEXT
  8
_0-9__0-2_LAY
 62
    7
 10
214.86698590118385
 20
252.16370000010102
 40
16
 41
1
 50
0
  1
13
  0
TEXT
  8
_0-9__0-2_LAY
 62
    7
 10
257.27579017804737
 20
461.58252088016945
 40
16
 41
1
 50
0
  1
14
  0
TEXT
  8
_0-9__0-2_LAY
 62
    7
 10
212.87208348997001
 20
461.00005000010117
 40
16
 41
1
 50
0
  1
14
  0
TEXT
  8
_0-9__0-2_LAY
 62
    7
 10
735.36693590118375
 20
252.16370000010102
 40
16
 41
1
 50
0
  1
13
  0
TEXT
  8
_0-9__0-2_LAY
 62
    7
 10
888.11920590118348
 20
333.74998000010123
 40
16
 41
1
 50
90
  1
60
  0
TEXT
  8
_0-9__0-2_LAY
 62
    7
 10
801.8028459011839
 20
252.16370000010102
 40
16
 41
1
 50
0
  1
13
  0
TEXT
  8
_0-9__0-2_LAY
 62
    7
 10
153.06006074481684
 20
344.93364303186092
 40
16
 41
1
 50
89.999922999999413
  1
100
  0
TEXT
  8
_0-9__0-2_LAY
 62
    7
 10
716.09047590118371
 20
310.24998000010112
 40
16
 41
1
 50
90
  1
13
  0
TEXT
  8
_0-9__0-2_LAY
 62
    7
 10
716.09047590118371
 20
357.24999000010098
 40
16
 41
1
 50
90
  1
13
  0
TEXT
  8
_0-9__0-2_LAY
 62
    7
 10
716.09047590118371
 20
333.74998000010123
 40
16
 41
1
 50
90
  1
34
  0
LINE
  8
_0-9__0-2_LAY
  6
CONTINUOUS
 62
    7
 10
2002.477931982286
 20
2063.612396694215
 11
2297.477931982286
 21
2063.612396694215
  0
LINE
  8
_0-9__0-2_LAY
  6
CONTINUOUS
 62
    7
 10
2297.477931982286
 20
2063.612396694215
 11
2297.477931982286
 21
2033.6123966942141
  0
TEXT
  8
_0-9__0-2_LAY
 62
    7
 10
2136.287757663205
 20
2066.1308774138802
 40
16
 41
1
 50
0
  1
295
  0
LINE
  8
_0-9__0-2_LAY
  6
CONTINUOUS
 62
    7
 10
1922.4779319822856
 20
2003.6123966942141
 11
1922.4779319822856
 21
1708.6123966942141
  0
LINE
  8
_0-9__0-2_LAY
  6
CONTINUOUS
 62
    7
 10
1942.4779319822856
 20
2003.6123966942141
 11
1942.4779319822856
 21
1708.6123966942141
  0
LINE
  8
_0-9__0-2_LAY
  6
CONTINUOUS
 62
    7
 10
2062.477931982286
 20
1678.6123966942152
 11
2062.477931982286
 21
1648.6123966942152
  0
LINE
  8
_0-9__0-2_LAY
  6
CONTINUOUS
 62
    7
 10
2002.477931982286
 20
1678.6123966942152
 11
2002.477931982286
 21
1648.6123966942152
  0
LINE
  8
_0-9__0-2_LAY
  6
CONTINUOUS
 62
    7
 10
2002.477931982286
 20
1648.6123966942152
 11
2062.477931982286
 21
1648.6123966942152
  0
LINE
  8
_0-9__0-2_LAY
  6
CONTINUOUS
 62
    7
 10
1922.4779319822856
 20
2003.6123966942141
 11
1972.477931982286
 21
2003.6123966942141
  0
LINE
  8
_0-9__0-2_LAY
  6
CONTINUOUS
 62
    7
 10
1922.4779319822856
 20
1708.6123966942141
 11
1972.477931982286
 21
1708.6123966942141
  0
LINE
  8
_0-9__0-2_LAY
  6
CONTINUOUS
 62
    7
 10
1942.4779319822856
 20
1728.6123966942152
 11
1972.477931982286
 21
1728.6123966942152
  0
LINE
  8
_0-9__0-2_LAY
  6
CONTINUOUS
 62
    7
 10
1942.4779319822856
 20
1740.6123966942141
 11
1972.477931982286
 21
1740.6123966942141
  0
LINE
  8
_0-9__0-2_LAY
  6
CONTINUOUS
 62
    7
 10
1942.4779319822856
 20
1785.6123966942141
 11
1972.477931982286
 21
1785.6123966942141
  0
LINE
  8
_0-9__0-2_LAY
  6
CONTINUOUS
 62
    7
 10
1942.4779319822856
 20
1798.1123966942141
 11
1972.477931982286
 21
1798.1123966942141
  0
LINE
  8
_0-9__0-2_LAY
  6
CONTINUOUS
 62
    7
 10
1942.4779319822856
 20
1840.1123966942141
 11
1972.477931982286
 21
1840.1123966942141
  0
LINE
  8
_0-9__0-2_LAY
  6
CONTINUOUS
 62
    7
 10
1942.4779319822856
 20
1852.6123966942141
 11
1972.477931982286
 21
1852.6123966942141
  0
LINE
  8
_0-9__0-2_LAY
  6
CONTINUOUS
 62
    7
 10
1942.4779319822856
 20
1897.6123966942141
 11
1972.477931982286
 21
1897.6123966942141
  0
LINE
  8
_0-9__0-2_LAY
  6
CONTINUOUS
 62
    7
 10
1942.4779319822856
 20
1910.1123966942141
 11
1972.477931982286
 21
1910.1123966942141
  0
TEXT
  8
_0-9__0-2_LAY
 62
    7
 10
1919.9399792789259
 20
1839.993992874565
 40
16
 41
1
 50
90
  1
295
  0
TEXT
  8
_0-9__0-2_LAY
 62
    7
 10
1941.1349814280798
 20
1751.2218629163551
 40
16
 41
1
 50
90
  1
45
  0
TEXT
  8
_0-9__0-2_LAY
 62
    7
 10
1940.9958859275757
 20
1774.2510531621601
 40
16
 41
1
 50
90
  1
12.5
  0
TEXT
  8
_0-9__0-2_LAY
 62
    7
 10
1940.1614929601378
 20
1727.3357390044951
 40
16
 41
1
 50
90
  1
12
  0
TEXT
  8
_0-9__0-2_LAY
 62
    7
 10
2024.2150318611129
 20
1650.1840127506582
 40
16
 41
1
 50
0.0000000000002035
  1
60
  0
CIRCLE
  8
_0-9__0-2_LAY
  6
CONTINUOUS
 62
    7
 10
2002.477931982286
 20
2063.612396694215
 40
0.5
  0
CIRCLE
  8
_0-9__0-2_LAY
  6
CONTINUOUS
 62
    7
 10
2002.477931982286
 20
2063.612396694215
 40
0.25
  0
CIRCLE
  8
_0-9__0-2_LAY
  6
CONTINUOUS
 62
    7
 10
2297.477931982286
 20
2063.612396694215
 40
0.5
  0
CIRCLE
  8
_0-9__0-2_LAY
  6
CONTINUOUS
 62
    7
 10
2297.477931982286
 20
2063.612396694215
 40
0.25
  0
CIRCLE
  8
_0-9__0-2_LAY
  6
CONTINUOUS
 62
    7
 10
1942.4779319822856
 20
2003.6123966942141
 40
0.5
  0
CIRCLE
  8
_0-9__0-2_LAY
  6
CONTINUOUS
 62
    7
 10
1942.4779319822856
 20
2003.6123966942141
 40
0.25
  0
CIRCLE
  8
_0-9__0-2_LAY
  6
CONTINUOUS
 62
    7
 10
1922.4779319822856
 20
2003.6123966942141
 40
0.5
  0
CIRCLE
  8
_0-9__0-2_LAY
  6
CONTINUOUS
 62
    7
 10
1922.4779319822856
 20
2003.6123966942141
 40
0.25
  0
CIRCLE
  8
_0-9__0-2_LAY
  6
CONTINUOUS
 62
    7
 10
1942.4779319822856
 20
1910.1123966942141
 40
0.5
  0
CIRCLE
  8
_0-9__0-2_LAY
  6
CONTINUOUS
 62
    7
 10
1942.4779319822856
 20
1910.1123966942141
 40
0.25
  0
CIRCLE
  8
_0-9__0-2_LAY
  6
CONTINUOUS
 62
    7
 10
1942.4779319822856
 20
1897.6123966942141
 40
0.5
  0
CIRCLE
  8
_0-9__0-2_LAY
  6
CONTINUOUS
 62
    7
 10
1942.4779319822856
 20
1897.6123966942141
 40
0.25
  0
CIRCLE
  8
_0-9__0-2_LAY
  6
CONTINUOUS
 62
    7
 10
1942.4779319822856
 20
1852.6123966942141
 40
0.5
  0
CIRCLE
  8
_0-9__0-2_LAY
  6
CONTINUOUS
 62
    7
 10
1942.4779319822856
 20
1852.6123966942141
 40
0.25
  0
CIRCLE
  8
_0-9__0-2_LAY
  6
CONTINUOUS
 62
    7
 10
1942.4779319822856
 20
1840.1123966942141
 40
0.5
  0
CIRCLE
  8
_0-9__0-2_LAY
  6
CONTINUOUS
 62
    7
 10
1942.4779319822856
 20
1840.1123966942141
 40
0.25
  0
CIRCLE
  8
_0-9__0-2_LAY
  6
CONTINUOUS
 62
    7
 10
1942.4779319822856
 20
1798.1123966942141
 40
0.5
  0
CIRCLE
  8
_0-9__0-2_LAY
  6
CONTINUOUS
 62
    7
 10
1942.4779319822856
 20
1798.1123966942141
 40
0.25
  0
CIRCLE
  8
_0-9__0-2_LAY
  6
CONTINUOUS
 62
    7
 10
1942.4779319822856
 20
1785.6123966942141
 40
0.5
  0
CIRCLE
  8
_0-9__0-2_LAY
  6
CONTINUOUS
 62
    7
 10
1942.4779319822856
 20
1785.6123966942141
 40
0.25
  0
CIRCLE
  8
_0-9__0-2_LAY
  6
CONTINUOUS
 62
    7
 10
1942.4779319822856
 20
1740.6123966942141
 40
0.5
  0
CIRCLE
  8
_0-9__0-2_LAY
  6
CONTINUOUS
 62
    7
 10
1942.4779319822856
 20
1740.6123966942141
 40
0.25
  0
CIRCLE
  8
_0-9__0-2_LAY
  6
CONTINUOUS
 62
    7
 10
1942.4779319822856
 20
1728.6123966942152
 40
0.5
  0
CIRCLE
  8
_0-9__0-2_LAY
  6
CONTINUOUS
 62
    7
 10
1942.4779319822856
 20
1728.6123966942152
 40
0.25
  0
CIRCLE
  8
_0-9__0-2_LAY
  6
CONTINUOUS
 62
    7
 10
1942.4779319822856
 20
1708.6123966942141
 40
0.5
  0
CIRCLE
  8
_0-9__0-2_LAY
  6
CONTINUOUS
 62
    7
 10
1942.4779319822856
 20
1708.6123966942141
 40
0.25
  0
CIRCLE
  8
_0-9__0-2_LAY
  6
CONTINUOUS
 62
    7
 10
1922.4779319822856
 20
1708.6123966942141
 40
0.5
  0
CIRCLE
  8
_0-9__0-2_LAY
  6
CONTINUOUS
 62
    7
 10
1922.4779319822856
 20
1708.6123966942141
 40
0.25
  0
CIRCLE
  8
_0-9__0-2_LAY
  6
CONTINUOUS
 62
    7
 10
2062.477931982286
 20
1648.6123966942152
 40
0.5
  0
CIRCLE
  8
_0-9__0-2_LAY
  6
CONTINUOUS
 62
    7
 10
2062.477931982286
 20
1648.6123966942152
 40
0.25
  0
CIRCLE
  8
_0-9__0-2_LAY
  6
CONTINUOUS
 62
    7
 10
2002.477931982286
 20
1648.6123966942152
 40
0.5
  0
CIRCLE
  8
_0-9__0-2_LAY
  6
CONTINUOUS
 62
    7
 10
2002.477931982286
 20
1648.6123966942152
 40
0.25
  0
TEXT
  8
_0-9__0-2_LAY
 62
    7
 10
1940.4809927156816
 20
1940.1853157175021
 40
16
 41
1
 50
90
  1
93.5
  0
LINE
  8
_0-9__0-2_LAY
  6
CONTINUOUS
 62
    7
 10
2138.7313393949917
 20
2003.6123966942141
 11
2138.7313393949917
 21
1943.6123966942141
  0
TEXT
  8
_0-9__0-2_LAY
 62
    7
 10
2138.7462009259129
 20
1966.0829262801351
 40
16
 41
1
 50
90
  1
34
  0
TEXT
  8
_0-9__0-2_LAY
 62
    7
 10
2138.7462009259129
 20
1989.9490587864932
 40
16
 41
1
 50
90
  1
13
  0
TEXT
  8
_0-9__0-2_LAY
 62
    7
 10
2138.7462009259129
 20
1942.3668952360831
 40
16
 41
1
 50
90
  1
13
  0
CIRCLE
  8
_0-9__0-2_LAY
  6
CONTINUOUS
 62
    7
 10
2138.7313393949917
 20
2003.6123966942141
 40
0.5
  0
CIRCLE
  8
_0-9__0-2_LAY
  6
CONTINUOUS
 62
    7
 10
2138.7313393949917
 20
2003.6123966942141
 40
0.25
  0
CIRCLE
  8
_0-9__0-2_LAY
  6
CONTINUOUS
 62
    7
 10
2138.7313393949917
 20
1990.6123966942141
 40
0.5
  0
CIRCLE
  8
_0-9__0-2_LAY
  6
CONTINUOUS
 62
    7
 10
2138.7313393949917
 20
1990.6123966942141
 40
0.25
  0
CIRCLE
  8
_0-9__0-2_LAY
  6
CONTINUOUS
 62
    7
 10
2138.7313393949917
 20
1956.6123966942141
 40
0.5
  0
CIRCLE
  8
_0-9__0-2_LAY
  6
CONTINUOUS
 62
    7
 10
2138.7313393949917
 20
1956.6123966942141
 40
0.25
  0
CIRCLE
  8
_0-9__0-2_LAY
  6
CONTINUOUS
 62
    7
 10
2138.7313393949917
 20
1943.6123966942141
 40
0.5
  0
CIRCLE
  8
_0-9__0-2_LAY
  6
CONTINUOUS
 62
    7
 10
2138.7313393949917
 20
1943.6123966942141
 40
0.25
  0
LINE
  8
_0-9__0-2_LAY
  6
CONTINUOUS
 62
    7
 10
1942.4779319822856
 20
1111.8124116942151
 11
1972.4779219822867
 21
1111.8124116942151
  0
LINE
  8
_0-9__0-2_LAY
  6
CONTINUOUS
 62
    7
 10
1942.4779319822856
 20
1098.8124216942151
 11
1972.4779219822867
 21
1098.8124216942151
  0
LINE
  8
_0-9__0-2_LAY
  6
CONTINUOUS
 62
    7
 10
1942.4779319822856
 20
1310.8123716942152
 11
1942.4779319822856
 21
1015.812391694215
  0
LINE
  8
_0-9__0-2_LAY
  6
CONTINUOUS
 62
    7
 10
1942.4779319822856
 20
1224.8124116942142
 11
1972.4779219822867
 21
1224.8124116942142
  0
LINE
  8
_0-9__0-2_LAY
  6
CONTINUOUS
 62
    7
 10
1942.4779319822856
 20
1237.8124016942152
 11
1972.4779219822867
 21
1237.8124016942152
  0
LINE
  8
_0-9__0-2_LAY
  6
CONTINUOUS
 62
    7
 10
1942.4779319822856
 20
1174.8124416942142
 11
1972.4779219822867
 21
1174.8124416942142
  0
LINE
  8
_0-9__0-2_LAY
  6
CONTINUOUS
 62
    7
 10
1942.4779319822856
 20
1161.8124016942152
 11
1972.4779219822867
 21
1161.8124016942152
  0
LINE
  8
_0-9__0-2_LAY
  6
CONTINUOUS
 62
    7
 10
1942.4779319822856
 20
1048.8123516942151
 11
1972.4779219822867
 21
1048.8123516942151
  0
LINE
  8
_0-9__0-2_LAY
  6
CONTINUOUS
 62
    7
 10
1942.4779319822856
 20
1035.8124116942149
 11
1972.4779219822867
 21
1035.8124116942149
  0
LINE
  8
_0-9__0-2_LAY
  6
CONTINUOUS
 62
    7
 10
1922.4779719822859
 20
1310.8123716942152
 11
1972.4779219822867
 21
1310.8123716942152
  0
LINE
  8
_0-9__0-2_LAY
  6
CONTINUOUS
 62
    7
 10
1922.4779719822859
 20
1310.8123716942152
 11
1922.4779719822859
 21
1015.812391694215
  0
LINE
  8
_0-9__0-2_LAY
  6
CONTINUOUS
 62
    7
 10
1922.4779719822859
 20
1015.812391694215
 11
1972.4779219822867
 21
1015.812391694215
  0
LINE
  8
_0-9__0-2_LAY
  6
CONTINUOUS
 62
    7
 10
2173.877951982286
 20
1310.8123716942152
 11
2173.877951982286
 21
1250.8124216942142
  0
CIRCLE
  8
_0-9__0-2_LAY
  6
CONTINUOUS
 62
    7
 10
1942.4779319822856
 20
1310.8123716942152
 40
0.6400000000000001
  0
CIRCLE
  8
_0-9__0-2_LAY
  6
CONTINUOUS
 62
    7
 10
1942.4779319822856
 20
1310.8123716942152
 40
0.04
  0
CIRCLE
  8
_0-9__0-2_LAY
  6
CONTINUOUS
 62
    7
 10
1942.4779319822856
 20
1237.8124016942152
 40
0.6400000000000001
  0
CIRCLE
  8
_0-9__0-2_LAY
  6
CONTINUOUS
 62
    7
 10
1942.4779319822856
 20
1237.8124016942152
 40
0.04
  0
CIRCLE
  8
_0-9__0-2_LAY
  6
CONTINUOUS
 62
    7
 10
1942.4779319822856
 20
1224.8124116942142
 40
0.6400000000000001
  0
CIRCLE
  8
_0-9__0-2_LAY
  6
CONTINUOUS
 62
    7
 10
1942.4779319822856
 20
1224.8124116942142
 40
0.04
  0
CIRCLE
  8
_0-9__0-2_LAY
  6
CONTINUOUS
 62
    7
 10
1942.4779319822856
 20
1174.8124416942142
 40
0.6400000000000001
  0
CIRCLE
  8
_0-9__0-2_LAY
  6
CONTINUOUS
 62
    7
 10
1942.4779319822856
 20
1174.8124416942142
 40
0.04
  0
CIRCLE
  8
_0-9__0-2_LAY
  6
CONTINUOUS
 62
    7
 10
1942.4779319822856
 20
1161.8124016942152
 40
0.6400000000000001
  0
CIRCLE
  8
_0-9__0-2_LAY
  6
CONTINUOUS
 62
    7
 10
1942.4779319822856
 20
1161.8124016942152
 40
0.04
  0
CIRCLE
  8
_0-9__0-2_LAY
  6
CONTINUOUS
 62
    7
 10
1942.4779319822856
 20
1111.8124116942151
 40
0.6400000000000001
  0
CIRCLE
  8
_0-9__0-2_LAY
  6
CONTINUOUS
 62
    7
 10
1942.4779319822856
 20
1111.8124116942151
 40
0.04
  0
CIRCLE
  8
_0-9__0-2_LAY
  6
CONTINUOUS
 62
    7
 10
1942.4779319822856
 20
1098.8124216942151
 40
0.6400000000000001
  0
CIRCLE
  8
_0-9__0-2_LAY
  6
CONTINUOUS
 62
    7
 10
1942.4779319822856
 20
1098.8124216942151
 40
0.04
  0
CIRCLE
  8
_0-9__0-2_LAY
  6
CONTINUOUS
 62
    7
 10
1942.4779319822856
 20
1048.8123516942151
 40
0.6400000000000001
  0
CIRCLE
  8
_0-9__0-2_LAY
  6
CONTINUOUS
 62
    7
 10
1942.4779319822856
 20
1048.8123516942151
 40
0.04
  0
CIRCLE
  8
_0-9__0-2_LAY
  6
CONTINUOUS
 62
    7
 10
1942.4779319822856
 20
1035.8124116942149
 40
0.6400000000000001
  0
CIRCLE
  8
_0-9__0-2_LAY
  6
CONTINUOUS
 62
    7
 10
1942.4779319822856
 20
1035.8124116942149
 40
0.04
  0
CIRCLE
  8
_0-9__0-2_LAY
  6
CONTINUOUS
 62
    7
 10
1942.4779319822856
 20
1015.812391694215
 40
0.6400000000000001
  0
CIRCLE
  8
_0-9__0-2_LAY
  6
CONTINUOUS
 62
    7
 10
1942.4779319822856
 20
1015.812391694215
 40
0.04
  0
CIRCLE
  8
_0-9__0-2_LAY
  6
CONTINUOUS
 62
    7
 10
1922.4779719822859
 20
1310.8123716942152
 40
0.6400000000000001
  0
CIRCLE
  8
_0-9__0-2_LAY
  6
CONTINUOUS
 62
    7
 10
1922.4779719822859
 20
1310.8123716942152
 40
0.04
  0
CIRCLE
  8
_0-9__0-2_LAY
  6
CONTINUOUS
 62
    7
 10
1922.4779719822859
 20
1015.812391694215
 40
0.6400000000000001
  0
CIRCLE
  8
_0-9__0-2_LAY
  6
CONTINUOUS
 62
    7
 10
1922.4779719822859
 20
1015.812391694215
 40
0.04
  0
CIRCLE
  8
_0-9__0-2_LAY
  6
CONTINUOUS
 62
    7
 10
2173.877951982286
 20
1310.8123716942152
 40
0.6400000000000001
  0
CIRCLE
  8
_0-9__0-2_LAY
  6
CONTINUOUS
 62
    7
 10
2173.877951982286
 20
1310.8123716942152
 40
0.04
  0
CIRCLE
  8
_0-9__0-2_LAY
  6
CONTINUOUS
 62
    7
 10
2173.877951982286
 20
1297.8123816942152
 40
0.6400000000000001
  0
CIRCLE
  8
_0-9__0-2_LAY
  6
CONTINUOUS
 62
    7
 10
2173.877951982286
 20
1297.8123816942152
 40
0.04
  0
CIRCLE
  8
_0-9__0-2_LAY
  6
CONTINUOUS
 62
    7
 10
2173.877951982286
 20
1263.8123716942152
 40
0.6400000000000001
  0
CIRCLE
  8
_0-9__0-2_LAY
  6
CONTINUOUS
 62
    7
 10
2173.877951982286
 20
1263.8123716942152
 40
0.04
  0
CIRCLE
  8
_0-9__0-2_LAY
  6
CONTINUOUS
 62
    7
 10
2173.877951982286
 20
1250.8124216942142
 40
0.6400000000000001
  0
CIRCLE
  8
_0-9__0-2_LAY
  6
CONTINUOUS
 62
    7
 10
2173.877951982286
 20
1250.8124216942142
 40
0.04
  0
TEXT
  8
_0-9__0-2_LAY
 62
    7
 10
1941.4779279505751
 20
1257.6124016942169
 40
16
 41
1
 50
89.999923000000237
  1
73
  0
TEXT
  8
_0-9__0-2_LAY
 62
    7
 10
1940.3418293175928
 20
1214.5160487777193
 40
16
 41
1
 50
89.999922999999967
  1
 13
  0
TEXT
  8
_0-9__0-2_LAY
 62
    7
 10
1940.5690702452857
 20
1182.4346983342161
 40
16
 41
1
 50
89.999922999999967
  1
 50
  0
TEXT
  8
_0-9__0-2_LAY
 62
    7
 10
1940.9095535620877
 20
1151.5416589080342
 40
16
 41
1
 50
89.999922999999967
  1
 13
  0
TEXT
  8
_0-9__0-2_LAY
 62
    7
 10
1941.1939377875619
 20
1119.7192180804013
 40
16
 41
1
 50
89.999922999999967
  1
 50
  0
TEXT
  8
_0-9__0-2_LAY
 62
    7
 10
1940.7684056558001
 20
1089.1155233130812
 40
16
 41
1
 50
89.999922999999967
  1
 13
  0
TEXT
  8
_0-9__0-2_LAY
 62
    7
 10
1941.1941178231577
 20
1055.446253102883
 40
16
 41
1
 50
89.999922999999967
  1
 50
  0
TEXT
  8
_0-9__0-2_LAY
 62
    7
 10
1920.568489354725
 20
1135.5678148316233
 40
16
 41
1
 50
89.999954000000074
  1
 295
  0
TEXT
  8
_0-9__0-2_LAY
 62
    7
 10
1940.6265376071397
 20
1025.9737013745691
 40
16
 41
1
 50
89.999922999999967
  1
 13
  0
LINE
  8
_0-9__0-2_LAY
  6
CONTINUOUS
 62
    7
 10
2189.877951982286
 20
617.21240669420979
 11
2189.877951982286
 21
557.21247669420984
  0
LINE
  8
_0-9__0-2_LAY
  6
CONTINUOUS
 62
    7
 10
2297.477931982286
 20
677.21250669420988
 11
2002.4779219822858
 21
677.21250669420988
  0
LINE
  8
_0-9__0-2_LAY
  6
CONTINUOUS
 62
    7
 10
2297.477931982286
 20
677.21250669420988
 11
2297.477931982286
 21
647.21240669420979
  0
LINE
  8
_0-9__0-2_LAY
  6
CONTINUOUS
 62
    7
 10
2002.4779219822858
 20
677.21250669420988
 11
2002.4779219822858
 21
647.21240669420979
  0
LINE
  8
_0-9__0-2_LAY
  6
CONTINUOUS
 62
    7
 10
2002.4779219822858
 20
262.21238269420985
 11
2062.4778719822866
 21
262.21238269420985
  0
LINE
  8
_0-9__0-2_LAY
  6
CONTINUOUS
 62
    7
 10
2062.4778719822866
 20
262.21238269420985
 11
2062.4778719822866
 21
292.21236669420989
  0
LINE
  8
_0-9__0-2_LAY
  6
CONTINUOUS
 62
    7
 10
2002.4779219822858
 20
262.21238269420985
 11
2002.4779219822858
 21
292.21236669420989
  0
LINE
  8
_0-9__0-2_LAY
  6
CONTINUOUS
 62
    7
 10
1922.4779819822866
 20
617.21240669420979
 11
1972.4779219822867
 21
617.21240669420979
  0
LINE
  8
_0-9__0-2_LAY
  6
CONTINUOUS
 62
    7
 10
1922.4779819822866
 20
617.21240669420979
 11
1922.4779819822866
 21
322.21239669420993
  0
LINE
  8
_0-9__0-2_LAY
  6
CONTINUOUS
 62
    7
 10
1972.4779219822867
 20
322.21239669420993
 11
1922.4779819822866
 21
322.21239669420993
  0
LINE
  8
_0-9__0-2_LAY
  6
CONTINUOUS
 62
    7
 10
1942.4779519822869
 20
617.25240659420979
 11
1942.4779519822869
 21
322.21239669420993
  0
LINE
  8
_0-9__0-2_LAY
  6
CONTINUOUS
 62
    7
 10
1972.4779219822867
 20
391.21237669420987
 11
1942.4779519822869
 21
391.21237669420987
  0
LINE
  8
_0-9__0-2_LAY
  6
CONTINUOUS
 62
    7
 10
1972.4779219822867
 20
335.21236669421
 11
1942.4779519822869
 21
335.21236669421
  0
LINE
  8
_0-9__0-2_LAY
  6
CONTINUOUS
 62
    7
 10
1972.4779219822867
 20
404.21234669420983
 11
1942.4779519822869
 21
404.21234669420983
  0
LINE
  8
_0-9__0-2_LAY
  6
CONTINUOUS
 62
    7
 10
1972.4779219822867
 20
542.21240669420968
 11
1942.4779519822869
 21
542.21240669420968
  0
LINE
  8
_0-9__0-2_LAY
  6
CONTINUOUS
 62
    7
 10
1972.4779219822867
 20
460.2123566942098
 11
1942.4779519822869
 21
460.2123566942098
  0
LINE
  8
_0-9__0-2_LAY
  6
CONTINUOUS
 62
    7
 10
1972.4779219822867
 20
473.2124466942098
 11
1942.4779519822869
 21
473.2124466942098
  0
LINE
  8
_0-9__0-2_LAY
  6
CONTINUOUS
 62
    7
 10
1972.4779219822867
 20
529.21238669420984
 11
1942.4779519822869
 21
529.21238669420984
  0
CIRCLE
  8
_0-9__0-2_LAY
  6
CONTINUOUS
 62
    7
 10
2189.877951982286
 20
617.21240669420979
 40
0.6399998999999999
  0
CIRCLE
  8
_0-9__0-2_LAY
  6
CONTINUOUS
 62
    7
 10
2189.877951982286
 20
604.21240669420979
 40
0.0399998999999999
  0
CIRCLE
  8
_0-9__0-2_LAY
  6
CONTINUOUS
 62
    7
 10
2189.877951982286
 20
604.21240669420979
 40
0.6399998999999999
  0
CIRCLE
  8
_0-9__0-2_LAY
  6
CONTINUOUS
 62
    7
 10
2189.877951982286
 20
570.2123966942097
 40
0.6399998999999999
  0
CIRCLE
  8
_0-9__0-2_LAY
  6
CONTINUOUS
 62
    7
 10
2189.877951982286
 20
617.21240669420979
 40
0.0399998999999999
  0
CIRCLE
  8
_0-9__0-2_LAY
  6
CONTINUOUS
 62
    7
 10
2189.877951982286
 20
557.21247669420984
 40
0.0399998999999999
  0
CIRCLE
  8
_0-9__0-2_LAY
  6
CONTINUOUS
 62
    7
 10
2189.877951982286
 20
570.2123966942097
 40
0.0399998999999999
  0
CIRCLE
  8
_0-9__0-2_LAY
  6
CONTINUOUS
 62
    7
 10
2189.877951982286
 20
557.21247669420984
 40
0.6399998999999999
  0
CIRCLE
  8
_0-9__0-2_LAY
  6
CONTINUOUS
 62
    7
 10
2002.4779219822858
 20
677.21250669420988
 40
0.0399998999999999
  0
CIRCLE
  8
_0-9__0-2_LAY
  6
CONTINUOUS
 62
    7
 10
2297.477931982286
 20
677.21250669420988
 40
0.6399998999999999
  0
CIRCLE
  8
_0-9__0-2_LAY
  6
CONTINUOUS
 62
    7
 10
2002.4779219822858
 20
677.21250669420988
 40
0.6399998999999999
  0
CIRCLE
  8
_0-9__0-2_LAY
  6
CONTINUOUS
 62
    7
 10
2297.477931982286
 20
677.21250669420988
 40
0.0399998999999999
  0
CIRCLE
  8
_0-9__0-2_LAY
  6
CONTINUOUS
 62
    7
 10
2062.4778719822866
 20
262.21238269420985
 40
0.0399998999999999
  0
CIRCLE
  8
_0-9__0-2_LAY
  6
CONTINUOUS
 62
    7
 10
2002.4779219822858
 20
262.21238269420985
 40
0.6399998999999999
  0
CIRCLE
  8
_0-9__0-2_LAY
  6
CONTINUOUS
 62
    7
 10
2062.4778719822866
 20
262.21238269420985
 40
0.6399998999999999
  0
CIRCLE
  8
_0-9__0-2_LAY
  6
CONTINUOUS
 62
    7
 10
2002.4779219822858
 20
262.21238269420985
 40
0.0399998999999999
  0
CIRCLE
  8
_0-9__0-2_LAY
  6
CONTINUOUS
 62
    7
 10
1942.4779519822869
 20
617.21240669420979
 40
0.6399998999999999
  0
CIRCLE
  8
_0-9__0-2_LAY
  6
CONTINUOUS
 62
    7
 10
1942.4779519822869
 20
617.21240669420979
 40
0.0399998999999999
  0
CIRCLE
  8
_0-9__0-2_LAY
  6
CONTINUOUS
 62
    7
 10
1922.4779819822866
 20
322.21239669420993
 40
0.0399998999999999
  0
CIRCLE
  8
_0-9__0-2_LAY
  6
CONTINUOUS
 62
    7
 10
1922.4779819822866
 20
322.21239669420993
 40
0.6399998999999999
  0
CIRCLE
  8
_0-9__0-2_LAY
  6
CONTINUOUS
 62
    7
 10
1922.4779819822866
 20
617.21240669420979
 40
0.0399998999999999
  0
CIRCLE
  8
_0-9__0-2_LAY
  6
CONTINUOUS
 62
    7
 10
1922.4779819822866
 20
617.21240669420979
 40
0.6399998999999999
  0
CIRCLE
  8
_0-9__0-2_LAY
  6
CONTINUOUS
 62
    7
 10
1942.4779519822869
 20
542.21237669420987
 40
0.6399998999999999
  0
CIRCLE
  8
_0-9__0-2_LAY
  6
CONTINUOUS
 62
    7
 10
1942.4779519822869
 20
529.21238669420984
 40
0.6399998999999999
  0
CIRCLE
  8
_0-9__0-2_LAY
  6
CONTINUOUS
 62
    7
 10
1942.4779519822869
 20
473.21237669420987
 40
0.6399998999999999
  0
CIRCLE
  8
_0-9__0-2_LAY
  6
CONTINUOUS
 62
    7
 10
1942.4779519822869
 20
460.21237669420987
 40
0.6399998999999999
  0
CIRCLE
  8
_0-9__0-2_LAY
  6
CONTINUOUS
 62
    7
 10
1942.4779519822869
 20
404.21236669420978
 40
0.6399998999999999
  0
CIRCLE
  8
_0-9__0-2_LAY
  6
CONTINUOUS
 62
    7
 10
1942.4779519822869
 20
391.21237669420987
 40
0.6399998999999999
  0
CIRCLE
  8
_0-9__0-2_LAY
  6
CONTINUOUS
 62
    7
 10
1942.4779519822869
 20
335.21238669420984
 40
0.6399998999999999
  0
CIRCLE
  8
_0-9__0-2_LAY
  6
CONTINUOUS
 62
    7
 10
1942.4779519822869
 20
322.21239669420993
 40
0.6399998999999999
  0
TEXT
  8
_0-9__0-2_LAY
 62
    7
 10
2136.2779119822867
 20
679.21246669420987
 40
16
 41
1
 50
0
  1
 295
  0
TEXT
  8
_0-9__0-2_LAY
 62
    7
 10
2015.2745873136978
 20
264.2124016942098
 40
16
 41
1
 50
0
  1
 60
  0
TEXT
  8
_0-9__0-2_LAY
 62
    7
 10
1920.4779671651779
 20
456.01240669421179
 40
16
 41
1
 50
89.999954000000074
  1
 295
  0
TEXT
  8
_0-9__0-2_LAY
 62
    7
 10
1939.7279163797789
 20
530.21239669421516
 40
16
 41
1
 50
89.999893000000469
  1
13
  0
TEXT
  8
_0-9__0-2_LAY
 62
    7
 10
1939.7279163797789
 20
495.71240669421513
 40
16
 41
1
 50
89.999893000000469
  1
56
  0
TEXT
  8
_0-9__0-2_LAY
 62
    7
 10
1939.7279163797789
 20
567.71234669421506
 40
16
 41
1
 50
89.999893000000469
  1
75
  0
TEXT
  8
_0-9__0-2_LAY
 62
    7
 10
1939.7279163797789
 20
461.21241669421511
 40
16
 41
1
 50
89.999893000000469
  1
13
  0
TEXT
  8
_0-9__0-2_LAY
 62
    7
 10
1939.7279163797789
 20
357.7123766942151
 40
16
 41
1
 50
89.999893000000469
  1
56
  0
TEXT
  8
_0-9__0-2_LAY
 62
    7
 10
1939.7279163797789
 20
323.21238669421507
 40
16
 41
1
 50
89.999893000000469
  1
13
  0
TEXT
  8
_0-9__0-2_LAY
 62
    7
 10
1939.7279163797789
 20
426.71232669421511
 40
16
 41
1
 50
89.999893000000469
  1
56
  0
TEXT
  8
_0-9__0-2_LAY
 62
    7
 10
1939.7279163797789
 20
392.21236669421523
 40
16
 41
1
 50
89.999893000000469
  1
13
  0
LINE
  8
_0-9__0-2_LAY
  6
CONTINUOUS
 62
    7
 10
2002.477931982286
 20
2063.612396694215
 11
2002.477931982286
 21
2033.6123966942141
  0
LINE
  8
_0-9__0-2_LAY
  6
CONTINUOUS
 62
    7
 10
2002.4779219822858
 20
1370.8123916942152
 11
2297.4779219822867
 21
1370.8123916942152
  0
LINE
  8
_0-9__0-2_LAY
  6
CONTINUOUS
 62
    7
 10
2297.4779219822867
 20
1370.8123916942152
 11
2297.4779219822867
 21
1340.8123916942152
  0
TEXT
  8
_0-9__0-2_LAY
 62
    7
 10
2136.2877476632057
 20
1373.3308724138813
 40
16
 41
1
 50
0
  1
295
  0
CIRCLE
  8
_0-9__0-2_LAY
  6
CONTINUOUS
 62
    7
 10
2002.4779219822858
 20
1370.8123916942152
 40
0.5
  0
CIRCLE
  8
_0-9__0-2_LAY
  6
CONTINUOUS
 62
    7
 10
2002.4779219822858
 20
1370.8123916942152
 40
0.25
  0
CIRCLE
  8
_0-9__0-2_LAY
  6
CONTINUOUS
 62
    7
 10
2297.4779219822867
 20
1370.8123916942152
 40
0.5
  0
CIRCLE
  8
_0-9__0-2_LAY
  6
CONTINUOUS
 62
    7
 10
2297.4779219822867
 20
1370.8123916942152
 40
0.25
  0
LINE
  8
_0-9__0-2_LAY
  6
CONTINUOUS
 62
    7
 10
2002.4779219822858
 20
1370.8123916942152
 11
2002.4779219822858
 21
1340.8123916942152
  0
LINE
  8
_0-9__0-2_LAY
  6
CONTINUOUS
 62
    7
 10
2062.9779019822868
 20
985.81239169421497
 11
2062.9779019822868
 21
955.81239169421485
  0
LINE
  8
_0-9__0-2_LAY
  6
CONTINUOUS
 62
    7
 10
2002.9779019822868
 20
985.81239169421497
 11
2002.9779019822868
 21
955.81239169421485
  0
LINE
  8
_0-9__0-2_LAY
  6
CONTINUOUS
 62
    7
 10
2002.9779019822868
 20
955.81239169421485
 11
2062.9779019822868
 21
955.81239169421485
  0
TEXT
  8
_0-9__0-2_LAY
 62
    7
 10
2024.7150018611128
 20
957.3840077506585
 40
16
 41
1
 50
0.0000000000004071
  1
60
  0
CIRCLE
  8
_0-9__0-2_LAY
  6
CONTINUOUS
 62
    7
 10
2062.9779019822868
 20
955.81239169421485
 40
0.5
  0
CIRCLE
  8
_0-9__0-2_LAY
  6
CONTINUOUS
 62
    7
 10
2062.9779019822868
 20
955.81239169421485
 40
0.25
  0
CIRCLE
  8
_0-9__0-2_LAY
  6
CONTINUOUS
 62
    7
 10
2002.9779019822868
 20
955.81239169421485
 40
0.5
  0
CIRCLE
  8
_0-9__0-2_LAY
  6
CONTINUOUS
 62
    7
 10
2002.9779019822868
 20
955.81239169421485
 40
0.25
  0
LINE
  8
_0-9__0-2_LAY
  6
CONTINUOUS
 62
    7
 10
214.01695607397232
 20
1516.2184879693391
 11
214.01695607397232
 21
1566.2184879693391
  0
LINE
  8
_0-9__0-2_LAY
  6
CONTINUOUS
 62
    7
 10
259.61696090118357
 20
1536.2184879693391
 11
259.61696090118357
 21
1566.2184879693391
  0
LINE
  8
_0-9__0-2_LAY
  6
CONTINUOUS
 62
    7
 10
179.86489590118344
 20
1686.5770479693392
 11
174.56163090118343
 21
1681.2737679693391
  0
LINE
  8
_0-9__0-2_LAY
  6
CONTINUOUS
 62
    7
 10
179.86488090118337
 20
1686.5770479693392
 11
201.07812090118341
 21
1665.3638529693392
  0
LINE
  8
_0-9__0-2_LAY
  6
CONTINUOUS
 62
    7
 10
174.56163090118343
 20
1681.2737679693391
 11
195.7748559011834
 21
1660.0605729693391
  0
TEXT
  8
_0-9__0-2_LAY
 62
    7
 10
161.57249088515482
 20
1673.1081564324363
 40
16
 41
1
 50
44.999800999999934
  1
約7.5
  0
LINE
  8
_0-9__0-2_LAY
  6
CONTINUOUS
 62
    7
 10
179.86489590118344
 20
1279.8506889651751
 11
174.56163090118343
 21
1274.5474089651752
  0
LINE
  8
_0-9__0-2_LAY
  6
CONTINUOUS
 62
    7
 10
179.86488090118337
 20
1279.8506889651751
 11
201.07812090118341
 21
1258.6374939651751
  0
LINE
  8
_0-9__0-2_LAY
  6
CONTINUOUS
 62
    7
 10
174.56163090118343
 20
1274.5474089651752
 11
195.7748559011834
 21
1253.3342139651752
  0
TEXT
  8
_0-9__0-2_LAY
 62
    7
 10
161.57249088515482
 20
1266.3817974282722
 40
16
 41
1
 50
44.999800999999934
  1
約7.5
  0
LINE
  8
_0-9__0-2_LAY
  6
CENTER1
 62
    7
 10
200.20276233881077
 20
1249.4921289651752
 11
210.20276233881077
 21
1249.4921289651752
  0
LINE
  8
_0-9__0-2_LAY
  6
CENTER1
 62
    7
 10
200.20276233881077
 20
1249.4921289651752
 11
200.20276233881077
 21
1239.4921289651752
  0
LINE
  8
_0-9__0-2_LAY
  6
CONTINUOUS
 62
    7
 10
276.61697590118365
 20
747.61327795293471
 11
216.61697590118365
 21
747.61327795293471
  0
TEXT
  8
_0-9__0-2_LAY
 62
    7
 10
259.39014208584331
 20
748.61291943235244
 40
16
 41
1
 50
0
  1
15
  0
TEXT
  8
_0-9__0-2_LAY
 62
    7
 10
214.62304103765518
 20
748.9503984213253
 40
16
 41
1
 50
0
  1
15
  0
LINE
  8
_0-9__0-2_LAY
  6
CONTINUOUS
 62
    7
 10
214.61698590118385
 20
231.16369000010104
 11
834.61687590118368
 21
231.16369000010104
  0
CIRCLE
  8
_0-9__0-2_LAY
  6
CONTINUOUS
 62
    7
 10
814.61685590118384
 20
251.16369000010104
 40
0.6499998999999998
  0
TEXT
  8
_0-9__0-2_LAY
 62
    7
 10
499.91285241206106
 20
232.31467797948972
 40
16
 41
1
 50
0
  1
600
  0
ARC
  8
_0-9__0-2_LAY
  6
CENTER1
 62
    7
 10
269.62361090118338
 20
2015.9362574987601
 40
50.382400624695542
 50
143.5609980874994
 51
180
  0
LINE
  8
_0-9__0-2_LAY
  6
CENTER1
 62
    7
 10
229.09149036749295
 20
2045.8617232052391
 11
226.35268258044198
 21
2044.2804717921272
  0
LINE
  8
_0-9__0-2_LAY
  6
CENTER1
 62
    7
 10
229.09149036749295
 20
2045.8617232052391
 11
229.09149036749295
 21
2043.320891718532
  0
LINE
  8
_0-9__0-2_LAY
  6
CENTER1
 62
    7
 10
219.24121027648789
 20
2015.9362574987601
 11
217.95109250004998
 21
2018.1708070352981
  0
LINE
  8
_0-9__0-2_LAY
  6
CENTER1
 62
    7
 10
219.24121027648789
 20
2015.9362574987601
 11
220.74603166486622
 21
2018.5426845997481
  0
LINE
  8
_0-9__0-2_LAY
  6
CONTINUOUS
 62
    7
 10
199.61692590118355
 20
1915.9362574987601
 11
794.61697590118354
 21
1915.9362574987601
  0
TEXT
  8
_0-9__0-2_LAY
 62
    7
 10
489.61697590118365
 20
1916.9362574987601
 40
16
 41
1
 50
0
  1
595
  0
LINE
  8
_0-9__0-2_LAY
  6
CONTINUOUS
 62
    7
 10
200.20271233881022
 20
1074.5254489651752
 11
795.2027623388102
 21
1074.5254489651752
  0
LINE
  8
_0-9__0-2_LAY
  6
CONTINUOUS
 62
    7
 10
200.20271233881022
 20
1074.5254489651752
 11
200.20271233881022
 21
1144.5254489651752
  0
TEXT
  8
_0-9__0-2_LAY
 62
    7
 10
490.20276233881032
 20
1075.5254489651752
 40
16
 41
1
 50
0
  1
595
  0
LINE
  8
_0-9__0-2_LAY
  6
CONTINUOUS
 62
    7
 10
199.01695607397232
 20
1496.2184879693391
 11
1094.6169759011837
 21
1496.2184879693391
  0
TEXT
  8
_0-9__0-2_LAY
 62
    7
 10
638.5396050578629
 20
1498.2956022999572
 40
16
 41
1
 50
0
  1
895
  0
LINE
  8
_0-9__0-2_LAY
  6
CONTINUOUS
 62
    7
 10
156.61703490118362
 20
858.99828514377521
 11
156.61703490118362
 21
708.99831514377513
  0
LINE
  8
_0-9__0-2_LAY
  6
CONTINUOUS
 62
    7
 10
156.61703490118362
 20
798.99828514377532
 11
186.61697590118365
 21
798.99828514377521
  0
LINE
  8
_0-9__0-2_LAY
  6
CONTINUOUS
 62
    7
 10
156.61703490118362
 20
783.99828514377521
 11
186.61697590118365
 21
783.99828514377521
  0
LINE
  8
_0-9__0-2_LAY
  6
CONTINUOUS
 62
    7
 10
156.61703490118362
 20
723.99828514377521
 11
186.61697590118365
 21
723.99828514377521
  0
CIRCLE
  8
_0-9__0-2_LAY
  6
CONTINUOUS
 62
    7
 10
156.61703490118362
 20
798.99828514377532
 40
0.6000001000000001
  0
CIRCLE
  8
_0-9__0-2_LAY
  6
CONTINUOUS
 62
    7
 10
156.61703490118362
 20
783.99828514377521
 40
0.6000001000000001
  0
CIRCLE
  8
_0-9__0-2_LAY
  6
CONTINUOUS
 62
    7
 10
156.61703490118362
 20
723.99828514377521
 40
0.6000001000000001
  0
CIRCLE
  8
_0-9__0-2_LAY
  6
CONTINUOUS
 62
    7
 10
156.61703490118362
 20
858.99828514377521
 40
0.6000001000000001
  0
CIRCLE
  8
_0-9__0-2_LAY
  6
CONTINUOUS
 62
    7
 10
156.61703490118362
 20
708.99831514377513
 40
0.6000001000000001
  0
TEXT
  8
_0-9__0-2_LAY
 62
    7
 10
155.17260073719672
 20
816.00451427007999
 40
16
 41
1
 50
90
  1
60
  0
TEXT
  8
_0-9__0-2_LAY
 62
    7
 10
155.17260073719672
 20
781.35477169467219
 40
16
 41
1
 50
90
  1
15
  0
TEXT
  8
_0-9__0-2_LAY
 62
    7
 10
155.17260073719672
 20
743.85722736702508
 40
16
 41
1
 50
90
  1
60
  0
TEXT
  8
_0-9__0-2_LAY
 62
    7
 10
155.17260073719672
 20
707.31365673117921
 40
16
 41
1
 50
90
  1
15
  0
TEXT
  8
_0-9__0-2_LAY
 62
    7
 10
1940.9958859275757
 20
1809.7557104921489
 40
16
 41
1
 50
90
  1
42
  0
TEXT
  8
_0-9__0-2_LAY
 62
    7
 10
1940.3026048593047
 20
1893.9061590248839
 40
16
 41
1
 50
90
  1
12.5
  0
TEXT
  8
_0-9__0-2_LAY
 62
    7
 10
1940.6086653703856
 20
1870.1872417179366
 40
16
 41
1
 50
90
  1
45
  0
TEXT
  8
_0-9__0-2_LAY
 62
    7
 10
1940.7186671187696
 20
1831.7565908914903
 40
16
 41
1
 50
90
  1
12.5
  0
TEXT
  8
_0-9__0-2_LAY
 62
    7
 10
1940.7167003824366
 20
1710.5453340666502
 40
16
 41
1
 50
90
  1
20
  0
TEXT
  8
_0-9__0-2_LAY
 62
    7
 10
1941.0522497744901
 20
1009.4890628134267
 40
16
 41
1
 50
89.999922999999967
  1
 20
  0
TEXT
  8
_0-9__0-2_LAY
 62
    7
 10
2172.8779411437913
 20
1241.7493047547684
 40
16
 41
1
 50
89.999862000000107
  1
 13
  0
TEXT
  8
_0-9__0-2_LAY
 62
    7
 10
2172.8779411437913
 20
1266.1354208607861
 40
16
 41
1
 50
89.999862000000107
  1
 34
  0
TEXT
  8
_0-9__0-2_LAY
 62
    7
 10
2172.8779411437913
 20
1289.0759395688181
 40
16
 41
1
 50
89.999862000000107
  1
 13
  0
TEXT
  8
_0-9__0-2_LAY
 62
    7
 10
2187.8779911437923
 20
547.97740226498854
 40
16
 41
1
 50
89.999862000000107
  1
 13
  0
TEXT
  8
_0-9__0-2_LAY
 62
    7
 10
2187.8779911437923
 20
570.72888131328386
 40
16
 41
1
 50
89.999862000000107
  1
 34
  0
TEXT
  8
_0-9__0-2_LAY
 62
    7
 10
2187.8779911437923
 20
595.81555615832519
 40
16
 41
1
 50
89.999862000000107
  1
 13
  0
TEXT
  8
_0-9__0-2_LAY
 62
    7
 10
759.15671849855426
 20
251.82221916447827
 40
16
 41
1
 50
0
  1
53.5
  0
TEXT
  8
_0-9__0-2_LAY
 62
    7
 10
692.10323919199448
 20
251.81641832885919
 40
16
 41
1
 50
0
  1
54.5
  0
TEXT
  8
_0-9__0-2_LAY
 62
    7
 10
624.66195058347512
 20
252.16370000010102
 40
16
 41
1
 50
0
  1
54.5
  0
TEXT
  8
_0-9__0-2_LAY
 62
    7
 10
556.65771298824029
 20
252.05503020829383
 40
16
 41
1
 50
0
  1
54.5
  0
TEXT
  8
_0-9__0-2_LAY
 62
    7
 10
489.40407404195867
 20
252.16370000010102
 40
16
 41
1
 50
0
  1
54.5
  0
TEXT
  8
_0-9__0-2_LAY
 62
    7
 10
421.92525550099208
 20
252.5114393540407
 40
16
 41
1
 50
0
  1
54.5
  0
TEXT
  8
_0-9__0-2_LAY
 62
    7
 10
355.19703560897915
 20
252.16370000010102
 40
16
 41
1
 50
0
  1
54.5
  0
TEXT
  8
_0-9__0-2_LAY
 62
    7
 10
288.14981129116086
 20
252.16370000010102
 40
16
 41
1
 50
0
  1
54.5
  0
TEXT
  8
_0-9__0-2_LAY
 62
    7
 10
237.3155177907488
 20
252.16370000010102
 40
16
 41
1
 50
0
  1
35
  0
TEXT
  8
_0-9__0-2_LAY
 62
    7
 10
234.96676951839709
 20
461.00005000010117
 40
16
 41
1
 50
0
  1
32
  0
TEXT
  8
_0-9__0-2_LAY
 62
    7
 10
239.37966407537306
 20
749.15288581470929
 40
16
 41
1
 50
0
  1
30
  0
TEXT
  8
_0-9__0-2_LAY
 62
    7
 10
777.73403506016768
 20
1311.7094936539972
 40
16
 41
1
 50
0
  1
20
  0
TEXT
  8
_0-9__0-2_LAY
 62
    7
 10
670.46596648308218
 20
1204.1667695892511
 40
16
 41
1
 50
90
  1
45
  0
TEXT
  8
_0-9__0-2_LAY
 62
    7
 10
852.83124568765049
 20
1202.928281818477
 40
16
 41
1
 50
90
  1
75
  0
TEXT
  8
_0-9__0-2_LAY
 62
    7
 10
194.27024902042058
 20
1194.7114463882231
 40
16
 41
1
 50
0
  1
45°
  0
TEXT
  8
_0-9__0-2_LAY
 62
    7
 10
197.30079106557241
 20
1607.8275625555023
 40
16
 41
1
 50
0
  1
45°
  0
TEXT
  8
_0-9__0-2_LAY
 62
    7
 10
196.80821070219645
 20
2029.1963744313462
 40
16
 41
1
 50
0
  1
45°
  0
TEXT
  8
_0-9__0-2_LAY
 62
    7
 10
672.31732590118372
 20
2062.6300931414066
 40
16
 41
1
 50
90
  1
13
  0
TEXT
  8
_0-9__0-2_LAY
 62
    7
 10
671.66958090118351
 20
2014.3499200436859
 40
16
 41
1
 50
90
  1
13
  0
TEXT
  8
_0-9__0-2_LAY
 62
    7
 10
670.79044590118338
 20
2037.0013192721208
 40
16
 41
1
 50
90
  1
34
  0
TEXT
  8
_0-9__0-2_LAY
 62
    7
 10
228.58911349790878
 20
1957.4058674987602
 40
16
 41
1
 50
0
  1
45
  0
TEXT
  8
_0-9__0-2_LAY
 62
    7
 10
198.96548681919012
 20
1936.9362574987601
 40
16
 41
1
 50
0
  1
15
  0
TEXT
  8
_0-9__0-2_LAY
 62
    7
 10
776.69501193036479
 20
2138.230320525056
 40
16
 41
1
 50
0
  1
20
  0
TEXT
  8
_0-9__0-2_LAY
 62
    7
 10
1077.2086485184695
 20
1718.6391889106321
 40
16
 41
1
 50
0
  1
20
  0
TEXT
  8
_0-9__0-2_LAY
 62
    7
 10
228.67251334779303
 20
1537.6880979693392
 40
16
 41
1
 50
0
  1
45
  0
TEXT
  8
_0-9__0-2_LAY
 62
    7
 10
245.14815369233384
 20
1718.6391889106321
 40
16
 41
1
 50
0
  1
76
  0
POINT
  8
_0-9__0-2_LAY
 62
    7
 10
854.61697590118342
 20
2075.9362424987603
  0
POINT
  8
_0-9__0-2_LAY
 62
    7
 10
854.61697590118342
 20
2015.9362574987601
  0
POINT
  8
_0-9__0-2_LAY
 62
    7
 10
673.73968590118329
 20
2075.9362424987603
  0
POINT
  8
_0-9__0-2_LAY
 62
    7
 10
673.73968590118329
 20
2015.9362574987601
  0
POINT
  8
_0-9__0-2_LAY
 62
    7
 10
673.73968590118329
 20
2028.9362774987601
  0
POINT
  8
_0-9__0-2_LAY
 62
    7
 10
673.73968590118329
 20
2062.9362224987599
  0
POINT
  8
_0-9__0-2_LAY
 62
    7
 10
179.86489590118344
 20
2106.29480249876
  0
POINT
  8
_0-9__0-2_LAY
 62
    7
 10
174.56163090118343
 20
2100.9915224987599
  0
POINT
  8
_0-9__0-2_LAY
 62
    7
 10
259.61697590118365
 20
1955.9362574987601
  0
POINT
  8
_0-9__0-2_LAY
 62
    7
 10
285.6169059011836
 20
2135.936249998761
  0
POINT
  8
_0-9__0-2_LAY
 62
    7
 10
298.61694090118363
 20
2135.936249998761
  0
POINT
  8
_0-9__0-2_LAY
 62
    7
 10
353.61693090118342
 20
2135.936249998761
  0
POINT
  8
_0-9__0-2_LAY
 62
    7
 10
366.61687590118345
 20
2135.936249998761
  0
POINT
  8
_0-9__0-2_LAY
 62
    7
 10
421.6168959011834
 20
2135.936249998761
  0
POINT
  8
_0-9__0-2_LAY
 62
    7
 10
434.61690090118373
 20
2135.936249998761
  0
POINT
  8
_0-9__0-2_LAY
 62
    7
 10
489.6169059011836
 20
2135.936249998761
  0
POINT
  8
_0-9__0-2_LAY
 62
    7
 10
502.6168659011837
 20
2135.936249998761
  0
POINT
  8
_0-9__0-2_LAY
 62
    7
 10
557.61687090118357
 20
2135.936249998761
  0
POINT
  8
_0-9__0-2_LAY
 62
    7
 10
570.61689090118352
 20
2135.936249998761
  0
POINT
  8
_0-9__0-2_LAY
 62
    7
 10
625.61688090118332
 20
2135.936249998761
  0
POINT
  8
_0-9__0-2_LAY
 62
    7
 10
638.61684090118342
 20
2135.936249998761
  0
POINT
  8
_0-9__0-2_LAY
 62
    7
 10
693.61683090118379
 20
2135.936249998761
  0
POINT
  8
_0-9__0-2_LAY
 62
    7
 10
706.61686590118359
 20
2135.936249998761
  0
POINT
  8
_0-9__0-2_LAY
 62
    7
 10
761.6168559011835
 20
2135.936249998761
  0
POINT
  8
_0-9__0-2_LAY
 62
    7
 10
774.61689090118364
 20
2135.936249998761
  0
POINT
  8
_0-9__0-2_LAY
 62
    7
 10
214.61697590118365
 20
1935.9362574987601
  0
POINT
  8
_0-9__0-2_LAY
 62
    7
 10
1154.6169759011827
 20
1596.2184879693391
  0
POINT
  8
_0-9__0-2_LAY
 62
    7
 10
1154.6169759011827
 20
1656.2184879693391
  0
POINT
  8
_0-9__0-2_LAY
 62
    7
 10
1042.6169560739727
 20
1642.2184879693391
  0
POINT
  8
_0-9__0-2_LAY
 62
    7
 10
1042.6169560739727
 20
1610.2184879693391
  0
POINT
  8
_0-9__0-2_LAY
 62
    7
 10
1042.6169560739727
 20
1596.2184879693391
  0
POINT
  8
_0-9__0-2_LAY
 62
    7
 10
1042.6169560739727
 20
1656.2184879693391
  0
POINT
  8
_0-9__0-2_LAY
 62
    7
 10
214.61697590118365
 20
1716.2184879693391
  0
POINT
  8
_0-9__0-2_LAY
 62
    7
 10
290.61695607397269
 20
1716.2184879693391
  0
POINT
  8
_0-9__0-2_LAY
 62
    7
 10
304.61695607397269
 20
1716.2184879693391
  0
POINT
  8
_0-9__0-2_LAY
 62
    7
 10
360.61695607397269
 20
1716.2184879693391
  0
POINT
  8
_0-9__0-2_LAY
 62
    7
 10
374.61695607397269
 20
1716.2184879693391
  0
POINT
  8
_0-9__0-2_LAY
 62
    7
 10
430.61695607397269
 20
1716.2184879693391
  0
POINT
  8
_0-9__0-2_LAY
 62
    7
 10
444.61695607397269
 20
1716.2184879693391
  0
POINT
  8
_0-9__0-2_LAY
 62
    7
 10
500.61695607397269
 20
1716.2184879693391
  0
POINT
  8
_0-9__0-2_LAY
 62
    7
 10
514.61695607397269
 20
1716.2184879693391
  0
POINT
  8
_0-9__0-2_LAY
 62
    7
 10
570.61695607397269
 20
1716.2184879693391
  0
POINT
  8
_0-9__0-2_LAY
 62
    7
 10
584.61695607397269
 20
1716.2184879693391
  0
POINT
  8
_0-9__0-2_LAY
 62
    7
 10
640.61695607397314
 20
1716.2184879693391
  0
POINT
  8
_0-9__0-2_LAY
 62
    7
 10
654.61695607397269
 20
1716.2184879693391
  0
POINT
  8
_0-9__0-2_LAY
 62
    7
 10
710.61695607397257
 20
1716.2184879693391
  0
POINT
  8
_0-9__0-2_LAY
 62
    7
 10
724.61695607397291
 20
1716.2184879693391
  0
POINT
  8
_0-9__0-2_LAY
 62
    7
 10
780.61695607397257
 20
1716.2184879693391
  0
POINT
  8
_0-9__0-2_LAY
 62
    7
 10
794.61695607397257
 20
1716.2184879693391
  0
POINT
  8
_0-9__0-2_LAY
 62
    7
 10
850.61695607397257
 20
1716.2184879693391
  0
POINT
  8
_0-9__0-2_LAY
 62
    7
 10
864.61695607397257
 20
1716.2184879693391
  0
POINT
  8
_0-9__0-2_LAY
 62
    7
 10
920.61695607397269
 20
1716.2184879693391
  0
POINT
  8
_0-9__0-2_LAY
 62
    7
 10
934.61695607397269
 20
1716.2184879693391
  0
POINT
  8
_0-9__0-2_LAY
 62
    7
 10
990.6169560739728
 20
1716.2184879693391
  0
POINT
  8
_0-9__0-2_LAY
 62
    7
 10
1004.6169560739728
 20
1716.2184879693391
  0
POINT
  8
_0-9__0-2_LAY
 62
    7
 10
1060.6169560739727
 20
1716.2184879693391
  0
POINT
  8
_0-9__0-2_LAY
 62
    7
 10
1074.6169759011827
 20
1716.2184879693391
  0
POINT
  8
_0-9__0-2_LAY
 62
    7
 10
1094.6169759011837
 20
1716.2184879693391
  0
POINT
  8
_0-9__0-2_LAY
 62
    7
 10
2002.477931982286
 20
2063.612396694215
  0
POINT
  8
_0-9__0-2_LAY
 62
    7
 10
2297.477931982286
 20
2063.612396694215
  0
POINT
  8
_0-9__0-2_LAY
 62
    7
 10
1922.4779319822856
 20
2003.6123966942141
  0
POINT
  8
_0-9__0-2_LAY
 62
    7
 10
1942.4779319822856
 20
2003.6123966942141
  0
POINT
  8
_0-9__0-2_LAY
 62
    7
 10
1942.4779319822856
 20
1910.1123966942141
  0
POINT
  8
_0-9__0-2_LAY
 62
    7
 10
1942.4779319822856
 20
1897.6123966942141
  0
POINT
  8
_0-9__0-2_LAY
 62
    7
 10
1942.4779319822856
 20
1852.6123966942141
  0
POINT
  8
_0-9__0-2_LAY
 62
    7
 10
1942.4779319822856
 20
1840.1123966942141
  0
POINT
  8
_0-9__0-2_LAY
 62
    7
 10
1942.4779319822856
 20
1798.1123966942141
  0
POINT
  8
_0-9__0-2_LAY
 62
    7
 10
1942.4779319822856
 20
1785.6123966942141
  0
POINT
  8
_0-9__0-2_LAY
 62
    7
 10
1942.4779319822856
 20
1740.6123966942141
  0
POINT
  8
_0-9__0-2_LAY
 62
    7
 10
1942.4779319822856
 20
1728.6123966942152
  0
POINT
  8
_0-9__0-2_LAY
 62
    7
 10
1922.4779319822856
 20
1708.6123966942141
  0
POINT
  8
_0-9__0-2_LAY
 62
    7
 10
1942.4779319822856
 20
1708.6123966942141
  0
POINT
  8
_0-9__0-2_LAY
 62
    7
 10
2002.477931982286
 20
1648.6123966942152
  0
POINT
  8
_0-9__0-2_LAY
 62
    7
 10
2062.477931982286
 20
1648.6123966942152
  0
POINT
  8
_0-9__0-2_LAY
 62
    7
 10
2138.7313393949917
 20
2003.6123966942141
  0
POINT
  8
_0-9__0-2_LAY
 62
    7
 10
2138.7313393949917
 20
1990.6123966942141
  0
POINT
  8
_0-9__0-2_LAY
 62
    7
 10
2138.7313393949917
 20
1956.6123966942141
  0
POINT
  8
_0-9__0-2_LAY
 62
    7
 10
2138.7313393949917
 20
1943.6123966942141
  0
POINT
  8
_0-9__0-2_LAY
 62
    7
 10
259.61697590118411
 20
1536.2184879693391
  0
POINT
  8
_0-9__0-2_LAY
 62
    7
 10
179.86489590118344
 20
1686.5770479693392
  0
POINT
  8
_0-9__0-2_LAY
 62
    7
 10
174.56163090118343
 20
1681.2737679693391
  0
POINT
  8
_0-9__0-2_LAY
 62
    7
 10
794.61697590118354
 20
1935.9362574987601
  0
POINT
  8
_0-9__0-2_LAY
 62
    7
 10
794.61697590118354
 20
1915.9362574987601
  0
POINT
  8
_0-9__0-2_LAY
 62
    7
 10
794.61697590118354
 20
2135.936249998761
  0
POINT
  8
_0-9__0-2_LAY
 62
    7
 10
214.61697590118365
 20
2135.936249998761
  0
POINT
  8
_0-9__0-2_LAY
 62
    7
 10
214.61697590118411
 20
1536.2184879693391
  0
POINT
  8
_0-9__0-2_LAY
 62
    7
 10
214.61697590118365
 20
1955.9362574987601
  0
POINT
  8
_0-9__0-2_LAY
 62
    7
 10
199.01695607397232
 20
1516.2184879693391
  0
POINT
  8
_0-9__0-2_LAY
 62
    7
 10
1094.6169759011837
 20
1516.2184879693391
  0
POINT
  8
_0-9__0-2_LAY
 62
    7
 10
855.20276233881032
 20
1174.5254489651752
  0
POINT
  8
_0-9__0-2_LAY
 62
    7
 10
855.20276233881032
 20
1249.4921289651752
  0
POINT
  8
_0-9__0-2_LAY
 62
    7
 10
200.20276233881077
 20
1094.5254489651752
  0
POINT
  8
_0-9__0-2_LAY
 62
    7
 10
795.2027623388102
 20
1094.5254489651752
  0
POINT
  8
_0-9__0-2_LAY
 62
    7
 10
358.20276233881032
 20
1309.4921289651752
  0
POINT
  8
_0-9__0-2_LAY
 62
    7
 10
373.20276233881032
 20
1309.4921289651752
  0
POINT
  8
_0-9__0-2_LAY
 62
    7
 10
425.20276233881032
 20
1309.4921289651752
  0
POINT
  8
_0-9__0-2_LAY
 62
    7
 10
440.20276233881032
 20
1309.4921289651752
  0
POINT
  8
_0-9__0-2_LAY
 62
    7
 10
492.20276233881032
 20
1309.4921289651752
  0
POINT
  8
_0-9__0-2_LAY
 62
    7
 10
507.20276233880986
 20
1309.4921289651752
  0
POINT
  8
_0-9__0-2_LAY
 62
    7
 10
559.20276233880986
 20
1309.4921289651752
  0
POINT
  8
_0-9__0-2_LAY
 62
    7
 10
574.20276233880986
 20
1309.4921289651752
  0
POINT
  8
_0-9__0-2_LAY
 62
    7
 10
626.20276233880986
 20
1309.4921289651752
  0
POINT
  8
_0-9__0-2_LAY
 62
    7
 10
641.20276233881032
 20
1309.4921289651752
  0
POINT
  8
_0-9__0-2_LAY
 62
    7
 10
693.20276233880975
 20
1309.4921289651752
  0
POINT
  8
_0-9__0-2_LAY
 62
    7
 10
708.20276233880975
 20
1309.4921289651752
  0
POINT
  8
_0-9__0-2_LAY
 62
    7
 10
760.20276233880998
 20
1309.4921289651752
  0
POINT
  8
_0-9__0-2_LAY
 62
    7
 10
775.20276233881009
 20
1309.4921289651752
  0
POINT
  8
_0-9__0-2_LAY
 62
    7
 10
795.2027623388102
 20
1309.4921289651752
  0
POINT
  8
_0-9__0-2_LAY
 62
    7
 10
672.00557434485665
 20
1174.5254489651752
  0
POINT
  8
_0-9__0-2_LAY
 62
    7
 10
672.00557434485665
 20
1189.4921289651752
  0
POINT
  8
_0-9__0-2_LAY
 62
    7
 10
672.00557434485665
 20
1234.4921289651752
  0
POINT
  8
_0-9__0-2_LAY
 62
    7
 10
672.00557434485665
 20
1249.4921289651752
  0
POINT
  8
_0-9__0-2_LAY
 62
    7
 10
270.20276233881077
 20
1114.5254489651752
  0
POINT
  8
_0-9__0-2_LAY
 62
    7
 10
306.20276233881032
 20
1309.4921289651752
  0
POINT
  8
_0-9__0-2_LAY
 62
    7
 10
291.20276233881032
 20
1309.4921289651752
  0
POINT
  8
_0-9__0-2_LAY
 62
    7
 10
215.20276233881032
 20
1309.4921289651752
  0
POINT
  8
_0-9__0-2_LAY
 62
    7
 10
215.20276233881032
 20
1094.5254489651752
  0
POINT
  8
_0-9__0-2_LAY
 62
    7
 10
366.6170559011839
 20
918.99828514377521
  0
POINT
  8
_0-9__0-2_LAY
 62
    7
 10
216.61697590118365
 20
918.99828514377521
  0
POINT
  8
_0-9__0-2_LAY
 62
    7
 10
136.61703490118362
 20
708.99831514377513
  0
POINT
  8
_0-9__0-2_LAY
 62
    7
 10
136.61703490118362
 20
858.99828514377521
  0
POINT
  8
_0-9__0-2_LAY
 62
    7
 10
869.92594590118347
 20
326.99999000010098
  0
POINT
  8
_0-9__0-2_LAY
 62
    7
 10
869.92594590118347
 20
309.99998000010112
  0
POINT
  8
_0-9__0-2_LAY
 62
    7
 10
154.61698590118385
 20
410.00004000010108
  0
POINT
  8
_0-9__0-2_LAY
 62
    7
 10
154.61698590118385
 20
309.99998000010112
  0
POINT
  8
_0-9__0-2_LAY
 62
    7
 10
869.92594590118347
 20
353.00000000010107
  0
POINT
  8
_0-9__0-2_LAY
 62
    7
 10
600.1169659011839
 20
251.16369000010104
  0
POINT
  8
_0-9__0-2_LAY
 62
    7
 10
545.6169559011837
 20
251.16369000010104
  0
POINT
  8
_0-9__0-2_LAY
 62
    7
 10
667.61686590118359
 20
251.16369000010104
  0
POINT
  8
_0-9__0-2_LAY
 62
    7
 10
613.1169059011836
 20
251.16369000010104
  0
POINT
  8
_0-9__0-2_LAY
 62
    7
 10
465.1169459011835
 20
251.16369000010104
  0
POINT
  8
_0-9__0-2_LAY
 62
    7
 10
410.6169659011839
 20
251.16369000010104
  0
POINT
  8
_0-9__0-2_LAY
 62
    7
 10
532.6169659011839
 20
251.16369000010104
  0
POINT
  8
_0-9__0-2_LAY
 62
    7
 10
478.11696590118345
 20
251.16369000010104
  0
POINT
  8
_0-9__0-2_LAY
 62
    7
 10
834.61687590118368
 20
231.16369000010104
  0
POINT
  8
_0-9__0-2_LAY
 62
    7
 10
814.61685590118384
 20
231.16369000010104
  0
POINT
  8
_0-9__0-2_LAY
 62
    7
 10
735.11696590118368
 20
251.16369000010104
  0
POINT
  8
_0-9__0-2_LAY
 62
    7
 10
680.61685590118373
 20
251.16369000010104
  0
POINT
  8
_0-9__0-2_LAY
 62
    7
 10
801.61691590118369
 20
251.16369000010104
  0
POINT
  8
_0-9__0-2_LAY
 62
    7
 10
748.11685590118373
 20
251.16369000010104
  0
POINT
  8
_0-9__0-2_LAY
 62
    7
 10
397.6169959011836
 20
251.16369000010104
  0
POINT
  8
_0-9__0-2_LAY
 62
    7
 10
260.61698590118385
 20
460.00004000010108
  0
POINT
  8
_0-9__0-2_LAY
 62
    7
 10
228.61698590118385
 20
460.00004000010108
  0
POINT
  8
_0-9__0-2_LAY
 62
    7
 10
214.61698590118385
 20
480.00004000010097
  0
POINT
  8
_0-9__0-2_LAY
 62
    7
 10
274.61698590118385
 20
460.00004000010108
  0
POINT
  8
_0-9__0-2_LAY
 62
    7
 10
889.11920590118359
 20
309.99998000010112
  0
POINT
  8
_0-9__0-2_LAY
 62
    7
 10
869.92594590118347
 20
369.99998000010123
  0
POINT
  8
_0-9__0-2_LAY
 62
    7
 10
214.61698590118385
 20
460.00004000010108
  0
POINT
  8
_0-9__0-2_LAY
 62
    7
 10
889.11920590118359
 20
369.99998000010123
  0
POINT
  8
_0-9__0-2_LAY
 62
    7
 10
275.61698590118385
 20
251.16369000010104
  0
POINT
  8
_0-9__0-2_LAY
 62
    7
 10
262.61698590118385
 20
251.16369000010104
  0
POINT
  8
_0-9__0-2_LAY
 62
    7
 10
343.11698590118385
 20
251.16369000010104
  0
POINT
  8
_0-9__0-2_LAY
 62
    7
 10
330.1169959011836
 20
251.16369000010104
  0
POINT
  8
_0-9__0-2_LAY
 62
    7
 10
814.61700590118357
 20
480.00004000010097
  0
POINT
  8
_0-9__0-2_LAY
 62
    7
 10
274.61698590118385
 20
480.00004000010097
  0
POINT
  8
_0-9__0-2_LAY
 62
    7
 10
227.61697590118365
 20
251.16369000010104
  0
POINT
  8
_0-9__0-2_LAY
 62
    7
 10
214.6170359011835
 20
231.16366000010112
  0
POINT
  8
_0-9__0-2_LAY
 62
    7
 10
717.09047590118371
 20
369.99998000010123
  0
POINT
  8
_0-9__0-2_LAY
 62
    7
 10
717.09047590118371
 20
356.99999000010121
  0
POINT
  8
_0-9__0-2_LAY
 62
    7
 10
717.09047590118371
 20
323.00000000010107
  0
POINT
  8
_0-9__0-2_LAY
 62
    7
 10
717.09047590118371
 20
309.99993000010102
  0
POINT
  8
_0-9__0-2_LAY
 62
    7
 10
2173.877951982286
 20
1250.8124216942142
  0
POINT
  8
_0-9__0-2_LAY
 62
    7
 10
2173.877951982286
 20
1263.8123716942152
  0
POINT
  8
_0-9__0-2_LAY
 62
    7
 10
2173.877951982286
 20
1297.8123816942152
  0
POINT
  8
_0-9__0-2_LAY
 62
    7
 10
2173.877951982286
 20
1310.8123716942152
  0
POINT
  8
_0-9__0-2_LAY
 62
    7
 10
1922.4779719822859
 20
1015.812391694215
  0
POINT
  8
_0-9__0-2_LAY
 62
    7
 10
1942.4779319822856
 20
1015.812391694215
  0
POINT
  8
_0-9__0-2_LAY
 62
    7
 10
1942.4779319822856
 20
1035.8124116942149
  0
POINT
  8
_0-9__0-2_LAY
 62
    7
 10
1942.4779319822856
 20
1048.8123516942151
  0
POINT
  8
_0-9__0-2_LAY
 62
    7
 10
1942.4779319822856
 20
1098.8124216942151
  0
POINT
  8
_0-9__0-2_LAY
 62
    7
 10
1942.4779319822856
 20
1111.8124116942151
  0
POINT
  8
_0-9__0-2_LAY
 62
    7
 10
1942.4779319822856
 20
1161.8124016942152
  0
POINT
  8
_0-9__0-2_LAY
 62
    7
 10
1942.4779319822856
 20
1174.8124416942142
  0
POINT
  8
_0-9__0-2_LAY
 62
    7
 10
1942.4779319822856
 20
1224.8124116942142
  0
POINT
  8
_0-9__0-2_LAY
 62
    7
 10
1942.4779319822856
 20
1237.8124016942152
  0
POINT
  8
_0-9__0-2_LAY
 62
    7
 10
1942.4779319822856
 20
1310.8123716942152
  0
POINT
  8
_0-9__0-2_LAY
 62
    7
 10
1922.4779719822859
 20
1310.8123716942152
  0
POINT
  8
_0-9__0-2_LAY
 62
    7
 10
2002.4779219822858
 20
677.21250669420988
  0
POINT
  8
_0-9__0-2_LAY
 62
    7
 10
2297.477931982286
 20
677.21250669420988
  0
POINT
  8
_0-9__0-2_LAY
 62
    7
 10
1942.4779519822869
 20
617.21240669420979
  0
POINT
  8
_0-9__0-2_LAY
 62
    7
 10
1922.4779819822866
 20
617.21240669420979
  0
POINT
  8
_0-9__0-2_LAY
 62
    7
 10
1942.4779519822869
 20
542.21240669420968
  0
POINT
  8
_0-9__0-2_LAY
 62
    7
 10
1942.4779519822869
 20
529.21238669420984
  0
POINT
  8
_0-9__0-2_LAY
 62
    7
 10
1942.4779519822869
 20
473.2124466942098
  0
POINT
  8
_0-9__0-2_LAY
 62
    7
 10
1942.4779519822869
 20
460.2123566942098
  0
POINT
  8
_0-9__0-2_LAY
 62
    7
 10
1942.4779519822869
 20
404.21234669420983
  0
POINT
  8
_0-9__0-2_LAY
 62
    7
 10
1942.4779519822869
 20
391.21237669420987
  0
POINT
  8
_0-9__0-2_LAY
 62
    7
 10
1942.4779519822869
 20
335.21236669421
  0
POINT
  8
_0-9__0-2_LAY
 62
    7
 10
1942.4779519822869
 20
322.21239669420993
  0
POINT
  8
_0-9__0-2_LAY
 62
    7
 10
1922.4779819822866
 20
322.21239669420993
  0
POINT
  8
_0-9__0-2_LAY
 62
    7
 10
2189.877951982286
 20
617.21240669420979
  0
POINT
  8
_0-9__0-2_LAY
 62
    7
 10
2189.877951982286
 20
604.21240669420979
  0
POINT
  8
_0-9__0-2_LAY
 62
    7
 10
2189.877951982286
 20
570.2123966942097
  0
POINT
  8
_0-9__0-2_LAY
 62
    7
 10
2189.877951982286
 20
557.21247669420984
  0
POINT
  8
_0-9__0-2_LAY
 62
    7
 10
2002.4779219822858
 20
262.21238269420985
  0
POINT
  8
_0-9__0-2_LAY
 62
    7
 10
2062.4778719822866
 20
262.21238269420985
  0
POINT
  8
_0-9__0-2_LAY
 62
    7
 10
2002.4779219822858
 20
1370.8123916942152
  0
POINT
  8
_0-9__0-2_LAY
 62
    7
 10
2297.4779219822867
 20
1370.8123916942152
  0
POINT
  8
_0-9__0-2_LAY
 62
    7
 10
2002.9779019822868
 20
955.81239169421485
  0
POINT
  8
_0-9__0-2_LAY
 62
    7
 10
2062.9779019822868
 20
955.81239169421485
  0
POINT
  8
_0-9__0-2_LAY
 62
    7
 10
179.86489590118344
 20
1279.8506889651751
  0
POINT
  8
_0-9__0-2_LAY
 62
    7
 10
174.56163090118343
 20
1274.5474089651752
  0
POINT
  8
_0-9__0-2_LAY
 62
    7
 10
216.61697590118365
 20
747.61327795293471
  0
POINT
  8
_0-9__0-2_LAY
 62
    7
 10
231.5836559011841
 20
747.61327795293471
  0
POINT
  8
_0-9__0-2_LAY
 62
    7
 10
276.5836559011841
 20
747.61327795293471
  0
POINT
  8
_0-9__0-2_LAY
 62
    7
 10
276.61697590118365
 20
747.61327795293471
  0
POINT
  8
_0-9__0-2_LAY
 62
    7
 10
814.61670590118342
 20
251.16369000010104
  0
POINT
  8
_0-9__0-2_LAY
 62
    7
 10
156.61703490118362
 20
798.99828514377532
  0
POINT
  8
_0-9__0-2_LAY
 62
    7
 10
156.61703490118362
 20
783.99828514377521
  0
POINT
  8
_0-9__0-2_LAY
 62
    7
 10
156.61703490118362
 20
723.99828514377521
  0
POINT
  8
_0-9__0-2_LAY
 62
    7
 10
156.61703490118362
 20
858.99828514377521
  0
POINT
  8
_0-9__0-2_LAY
 62
    7
 10
156.61703490118362
 20
708.99831514377513
  0
POINT
  8
_0-9__0-2_LAY
 62
    7
 10
261.61697590118365
 20
747.61327795293471
  0
POINT
  8
_0-9__0-2_LAY
 62
    7
 10
1094.6169759011837
 20
1496.2184879693391
  0
POINT
  8
_0-9__0-2_LAY
 62
    7
 10
199.01695607397232
 20
1496.2184879693391
  0
POINT
  8
_0-9__0-2_LAY
 62
    7
 10
214.01695607397232
 20
1516.2184879693391
  0
POINT
  8
_0-9__0-2_LAY
 62
    7
 10
795.2027623388102
 20
1074.5254489651752
  0
POINT
  8
_0-9__0-2_LAY
 62
    7
 10
200.20271233881022
 20
1074.5254489651752
  0
POINT
  8
_0-9__0-2_LAY
 62
    7
 10
215.20276233881032
 20
1114.5254489651752
  0
POINT
  8
_0-9__0-2_LAY
 62
    7
 10
276.62045726585211
 20
648.99831514377524
  0
POINT
  8
_0-9__0-2_LAY
 62
    7
 10
216.62045726585166
 20
648.99831514377524
  0
TEXT
  8
_0-9__0-2_LAY
 62
    7
 10
869.12738307126688
 20
309.69947888915237
 40
16
 41
1
 50
90
  1
17
  0
TEXT
  8
_0-9__0-2_LAY
 62
    7
 10
868.92593590118383
 20
331.34665270991388
 40
16
 41
1
 50
90
  1
26
  0
TEXT
  8
_0-9__0-2_LAY
 62
    7
 10
868.92593590118383
 20
353.08411714098099
 40
16
 41
1
 50
90
  1
17
  0
TEXT
  8
_0-9__0-2_LAY
 62
    7
 10
816.78281253739544
 20
232.029610000101
 40
16
 41
1
 50
0
  1
20
  0
TEXT
  8
_0-9__0-2_LAY
 62
    7
 10
242.64804454319938
 20
2138.230320525056
 40
16
 41
1
 50
0
  1
71
  0
TEXT
  8
_0-9__0-2_LAY
 62
    7
 10
284.70089629302083
 20
2138.230320525056
 40
16
 41
1
 50
0
  1
13
  0
TEXT
  8
_0-9__0-2_LAY
 62
    7
 10
317.15472753473068
 20
2138.230320525056
 40
16
 41
1
 50
0
  1
55
  0
TEXT
  8
_0-9__0-2_LAY
 62
    7
 10
353.26532849381647
 20
2138.230320525056
 40
16
 41
1
 50
0
  1
13
  0
TEXT
  8
_0-9__0-2_LAY
 62
    7
 10
420.95365961649122
 20
2138.230320525056
 40
16
 41
1
 50
0
  1
13
  0
TEXT
  8
_0-9__0-2_LAY
 62
    7
 10
454.47404869243564
 20
2138.230320525056
 40
16
 41
1
 50
0
  1
55
  0
TEXT
  8
_0-9__0-2_LAY
 62
    7
 10
488.60389938794287
 20
2138.230320525056
 40
16
 41
1
 50
0
  1
13
  0
TEXT
  8
_0-9__0-2_LAY
 62
    7
 10
691.46573888277919
 20
2138.230320525056
 40
16
 41
1
 50
0
  1
13
  0
TEXT
  8
_0-9__0-2_LAY
 62
    7
 10
624.47574919918679
 20
2138.230320525056
 40
16
 41
1
 50
0
  1
13
  0
TEXT
  8
_0-9__0-2_LAY
 62
    7
 10
556.52077861795351
 20
2138.230320525056
 40
16
 41
1
 50
0
  1
13
  0
TEXT
  8
_0-a__0-0_
 62
    7
 10
129.31077709741521
 20
135.99999999999977
 40
24.000000000000227
 41
0.9999999999999906
 50
0
  1
メ－ス（押出成形セメント板）
  0
TEXT
  8
_0-a__0-0_
 62
    7
 10
577.31077709741567
 20
135.99999999999977
 40
24
 41
0.9999999999999995
 50
0
  1
アイカテック建材株式会社
  0
TEXT
  8
_0-a__0-0_
 62
    7
 10
1355.8107770974157
 20
160.5
 40
15
 41
1
 50
0
  1
ＳＣＡＬＥ
  0
TEXT
  8
_0-a__0-0_
 62
    7
 10
1463.0607770974152
 20
160.5
 40
15
 41
1
 50
0
  1
図面No.
  0
TEXT
  8
_0-a__0-0_
 62
    7
 10
1372.3107770974152
 20
121.99999999999977
 40
28
 41
1
 50
0
  1
1/8
  0
TEXT
  8
_0-a__0-0_
 62
    7
 10
1013.3107770974158
 20
135.99999999999977
 40
24.000000000000227
 41
0.9999999999999924
 50
0
  1
フラットパネルコーナー
  0
TEXT
  8
_0-a__0-0_
 62
    7
 10
1854.6892229025852
 20
135.99999999999977
 40
24.000000000000227
 41
0.9999999999999906
 50
0
  1
メ－ス（押出成形セメント板）
  0
TEXT
  8
_0-a__0-0_
 62
    7
 10
2302.6892229025857
 20
135.99999999999977
 40
24
 41
0.9999999999999995
 50
0
  1
アイカテック建材株式会社
  0
TEXT
  8
_0-a__0-0_
 62
    7
 10
3081.1892229025857
 20
160.5
 40
15
 41
1
 50
0
  1
ＳＣＡＬＥ
  0
TEXT
  8
_0-a__0-0_
 62
    7
 10
2738.6892229025862
 20
135.99999999999977
 40
24.000000000000227
 41
0.9999999999999924
 50
0
  1
フラットパネルコーナー
  0
TEXT
  8
_0-a__0-0_
 62
    7
 10
3097.6892229025852
 20
121.99999999999977
 40
28
 41
1
 50
0
  1
1/8
  0
TEXT
  8
_0-a__0-0_
 62
    7
 10
3188.4392229025852
 20
160.5
 40
15
 41
1
 50
0
  1
図面No.
  0
TEXT
  8
_0-a__0-0_
 62
    7
 10
3179.6892229025852
 20
121.99999999999977
 40
28
 41
1
 50
0
  1
S-2-2
  0
ENDSEC
  0
EOF
