  0
SECTION
  2
HEADER
  9
$ACADVER
  1
AC1009
  9
$INSBASE
 10
0
 20
0
 30
0
  9
$EXTMIN
 10
0
 20
0
  9
$EXTMAX
 10
3360
 20
2376
  9
$LIMMIN
 10
0
 20
0
  9
$LIMMAX
 10
3360
 20
2376
  9
$LTSCALE
 40
8
  0
ENDSEC
  0
SECTION
  2
TABLES
  0
TABLE
  2
LTYPE
 70
     9
  0
LTYPE
  2
CONTINUOUS
 70
    64
  3
実線
 72
    65
 73
     0
 40
0.0
  0
LTYPE
  2
DASHED1
 70
    64
  3
--  --  --  --  --  --  --  --  
 72
    65
 73
     2
 40
2.5
 49
1.25
 49
-1.25
  0
LTYPE
  2
DASHED2
 70
    64
  3
----    ----    ----    ----    
 72
    65
 73
     2
 40
5.0
 49
2.5
 49
-2.5
  0
LTYPE
  2
DASHED3
 70
    64
  3
------  ------  ------  ------  
 72
    65
 73
     2
 40
5.0
 49
3.75
 49
-1.25
  0
LTYPE
  2
CENTER1
 70
    64
  3
----- - ----- - ----- - ----- - 
 72
    65
 73
     4
 40
10.0
 49
6.25
 49
-1.25
 49
1.25
 49
-1.25
  0
LTYPE
  2
CENTER2
 70
    64
  3
----------  --  ----------  --  
 72
    65
 73
     4
 40
20.0
 49
12.5
 49
-2.5
 49
2.5
 49
-2.5
  0
LTYPE
  2
PHANTOM1
 70
    64
  3
--- - - --- - - --- - - --- - - 
 72
    65
 73
     6
 40
10.0
 49
3.25
 49
-1.25
 49
1.25
 49
-1.25
 49
1.25
 49
-1.25
  0
LTYPE
  2
PHANTOM2
 70
    64
  3
--------  -  -  --------  -  -  
 72
    65
 73
     6
 40
20.0
 49
10.0
 49
-2.5
 49
1.25
 49
-2.5
 49
1.25
 49
-2.5
  0
LTYPE
  2
DOT
 70
    64
  3
-   -   -   -   -   -   -   -   
 72
    65
 73
     2
 40
2.5
 49
0.625
 49
-1.875
  0
LTYPE
  2
DUMMY
 70
    64
  3
ダミー
 72
    65
 73
     0
 40
0.0
  0
LTYPE
  2
RAND1
 70
    64
  3
ランダム線1
 72
    65
 73
     4
 40
10.0
 49
1.0
 49
-2.0
 49
3.0
 49
-4.0
  0
LTYPE
  2
RAND2
 70
    64
  3
ランダム線2
 72
    65
 73
     4
 40
14.0
 49
2.0
 49
-3.0
 49
4.0
 49
-5.0
  0
LTYPE
  2
RAND3
 70
    64
  3
ランダム線3
 72
    65
 73
     4
 40
18.0
 49
3.0
 49
-4.0
 49
5.0
 49
-6.0
  0
LTYPE
  2
RAND4
 70
    64
  3
ランダム線4
 72
    65
 73
     4
 40
22.0
 49
4.0
 49
-5.0
 49
6.0
 49
-7.0
  0
LTYPE
  2
RAND5
 70
    64
  3
ランダム線5
 72
    65
 73
     4
 40
26.0
 49
5.0
 49
-6.0
 49
7.0
 49
-8.0
  0
LTYPE
  2
LONG1
 70
    64
  3
----------  --  ----------  --  
 72
    65
 73
     4
 40
40.0
 49
32.5
 49
-2.5
 49
2.5
 49
-2.5
  0
LTYPE
  2
LONG2
 70
    64
  3
--------  -  -  --------  -  -  
 72
    65
 73
     6
 40
40.0
 49
30.0
 49
-2.5
 49
1.25
 49
-2.5
 49
1.25
 49
-2.5
  0
LTYPE
  2
LONG3
 70
    64
  3
+++++++++++++++..+++++++++++++++
 72
    65
 73
     2
 40
40.0
 49
37.5
 49
-2.5
  0
LTYPE
  2
LONG4
 70
    64
  3
+++++++++++++++..+++++++++++++++
 72
    65
 73
     2
 40
80.0
 49
75.0
 49
-5.0
  0
LTYPE
  2
LONG5
 70
    64
  3
----------  --  ----------  --  
 72
    65
 73
     4
 40
60.0
 49
37.5
 49
-7.5
 49
7.5
 49
-7.5
  0
LTYPE
  2
dashed
 70
   64
  3
-------   -------------   ------
 72
   65
 73
    2
 40
7.5
 49
6
 49
-1.5
  0
LTYPE
  2
dashed_spaced
 70
   64
  3
----        --------        ----
 72
   65
 73
    2
 40
12
 49
6
 49
-6
  0
LTYPE
  2
long_dashed_dotted
 70
   64
  3
------------- --- --------------
 72
   65
 73
    4
 40
15.25
 49
12
 49
-1.5
 49
0.25
 49
-1.5
  0
LTYPE
  2
long_dashed_double-dotted
 70
   64
  3
----------- --- --- ------------
 72
   65
 73
    6
 40
17
 49
12
 49
-1.5
 49
0.25
 49
-1.5
 49
0.25
 49
-1.5
  0
LTYPE
  2
long_dashed_triplicate-dotted
 70
   64
  3
--------- --- --- --- ----------
 72
   65
 73
    8
 40
18.75
 49
12
 49
-1.5
 49
0.25
 49
-1.5
 49
0.25
 49
-1.5
 49
0.25
 49
-1.5
  0
LTYPE
  2
dotted
 70
   64
  3
   -       -       -       -    
 72
   65
 73
    2
 40
1.75
 49
0.25
 49
-1.5
  0
LTYPE
  2
chain
 70
   64
  3
-------------- -- --------------
 72
   65
 73
    4
 40
18.5
 49
12
 49
-1.5
 49
3.5
 49
-1.5
  0
LTYPE
  2
chain_double_dash
 70
   64
  3
------------ -- -- -------------
 72
   65
 73
    6
 40
23.5
 49
12
 49
-1.5
 49
3.5
 49
-1.5
 49
3.5
 49
-1.5
  0
LTYPE
  2
dashed_dotted
 70
   64
  3
-----------     -     ----------
 72
   65
 73
    4
 40
9.25
 49
6
 49
-1.5
 49
0.25
 49
-1.5
  0
LTYPE
  2
double-dashed_dotted
 70
   64
  3
------   -----------   -   -----
 72
   65
 73
    6
 40
16.75
 49
6
 49
-1.5
 49
6
 49
-1.5
 49
0.25
 49
-1.5
  0
LTYPE
  2
dashed_double-dotted
 70
   64
  3
---------    -    -    ---------
 72
   65
 73
    6
 40
11
 49
6
 49
-1.5
 49
0.25
 49
-1.5
 49
0.25
 49
-1.5
  0
LTYPE
  2
double-dashed_double-dotted
 70
   64
  3
-----   ---------   -   -   ----
 72
   65
 73
    8
 40
18.5
 49
6
 49
-1.5
 49
6
 49
-1.5
 49
0.25
 49
-1.5
 49
0.25
 49
-1.5
  0
LTYPE
  2
dashed_triplicate-dotted
 70
   64
  3
-------    -    -    -    ------
 72
   65
 73
    8
 40
12.75
 49
6
 49
-1.5
 49
0.25
 49
-1.5
 49
0.25
 49
-1.5
 49
0.25
 49
-1.5
  0
LTYPE
  2
double-dashed_triplicate-dotted
 70
   64
  3
-----  ---------  -  -  -  -----
 72
   65
 73
   10
 40
20.25
 49
6
 49
-1.5
 49
6
 49
-1.5
 49
0.25
 49
-1.5
 49
0.25
 49
-1.5
 49
0.25
 49
-1.5
  0
LTYPE
  2
undefined
 70
   64
  3
--------------------------------
 72
   65
 73
    0
 40
0
  0
LTYPE
  2
_
 70
   64
  3
                                
 72
   65
 73
    0
 40
0
  0
LTYPE
  2
__18
 70
   64
  3
                                
 72
   65
 73
    0
 40
0
  0
LTYPE
  2
__19
 70
   64
  3
                                
 72
   65
 73
    0
 40
0
  0
LTYPE
  2
__20
 70
   64
  3
                                
 72
   65
 73
    0
 40
0
  0
LTYPE
  2
__21
 70
   64
  3
                                
 72
   65
 73
    0
 40
0
  0
LTYPE
  2
__22
 70
   64
  3
                                
 72
   65
 73
    0
 40
0
  0
LTYPE
  2
__23
 70
   64
  3
                                
 72
   65
 73
    0
 40
0
  0
LTYPE
  2
__24
 70
   64
  3
                                
 72
   65
 73
    0
 40
0
  0
LTYPE
  2
__25
 70
   64
  3
                                
 72
   65
 73
    0
 40
0
  0
LTYPE
  2
__26
 70
   64
  3
                                
 72
   65
 73
    0
 40
0
  0
LTYPE
  2
__27
 70
   64
  3
                                
 72
   65
 73
    0
 40
0
  0
LTYPE
  2
__28
 70
   64
  3
                                
 72
   65
 73
    0
 40
0
  0
LTYPE
  2
__29
 70
   64
  3
                                
 72
   65
 73
    0
 40
0
  0
LTYPE
  2
__30
 70
   64
  3
                                
 72
   65
 73
    0
 40
0
  0
LTYPE
  2
__31
 70
   64
  3
                                
 72
   65
 73
    0
 40
0
  0
LTYPE
  2
__32
 70
   64
  3
                                
 72
   65
 73
    0
 40
0
  0
ENDTAB
  0
TABLE
  2
STYLE
  5
3
100
AcDbSymbolTable
 70
     1
  0
STYLE
  5
10
100
AcDbSymbolTableRecord
100
AcDbTextStyleTableRecord
  2
STANDARD
 70
     0
 40
0.0
 41
1.0
 50
0.0
 71
     0
 42
0.2
  3
txt
  4
bigfont.shx
  0
STYLE
  5
26
100
AcDbSymbolTableRecord
100
AcDbTextStyleTableRecord
  2
TATEGAKI
 70
    68
 40
0.0
 41
1.0
 50
0.0
 71
     0
 42
1.0
  3
txt
  4
bigfont.shx
  0
ENDTAB
  0
TABLE
  2
LAYER
 70
    4
  0
LAYER
  2
_0-0_LAY
 70
   64
 62
    7
  6
CONTINUOUS
  0
LAYER
  2
_0-9_ADD_LINE
 70
   64
 62
    7
  6
CONTINUOUS
  0
LAYER
  2
_0-a_
 70
   64
 62
    7
  6
CONTINUOUS
  0
LAYER
  2
ADD_LINE
 70
   64
 62
    7
  6
CONTINUOUS
  0
ENDTAB
  0
ENDSEC
  0
SECTION
  2
BLOCKS
  0
ENDSEC
  0
SECTION
  2
ENTITIES
  0
TEXT
  8
_0-9_ADD_LINE
 62
    7
 10
199.92631610445551
 20
1705.9999999999998
 40
16
 41
1
 50
0
  1
84
  0
LINE
  8
ADD_LINE
  6
DOT
 62
    7
 10
-55.379882699312247
 20
2364
 11
-55.379882699312247
 21
11.999999999999773
  0
LINE
  8
ADD_LINE
  6
DOT
 62
    7
 10
1592.6201173006871
 20
2364
 11
1592.6201173006871
 21
11.999999999999773
  0
LINE
  8
ADD_LINE
  6
DOT
 62
    7
 10
-55.379882699312247
 20
2364
 11
1592.6201173006871
 21
2364
  0
LINE
  8
ADD_LINE
  6
DOT
 62
    7
 10
-55.379882699312247
 20
11.999999999999773
 11
1592.6201173006871
 21
11.999999999999773
  0
LINE
  8
_0-a_
  6
CONTINUOUS
 62
    7
 10
48.620117300687525
 20
548
 11
480.6201653006874
 21
548
  0
LINE
  8
_0-a_
  6
CONTINUOUS
 62
    7
 10
48.620117300687525
 20
963.99999999999943
 11
480.6201653006874
 21
963.99999999999943
  0
LINE
  8
_0-a_
  6
CONTINUOUS
 62
    7
 10
48.620117300687525
 20
2260
 11
1488.6201173006875
 21
2260
  0
LINE
  8
_0-a_
  6
CONTINUOUS
 62
    7
 10
48.620117300687525
 20
2260
 11
48.620117300687525
 21
116
  0
LINE
  8
_0-a_
  6
CONTINUOUS
 62
    7
 10
480.6201653006874
 20
2260
 11
480.6201653006874
 21
2212.0000000000009
  0
LINE
  8
_0-a_
  6
CONTINUOUS
 62
    7
 10
480.6201653006874
 20
1011.9999999999994
 11
480.6201653006874
 21
963.99999999999943
  0
LINE
  8
_0-a_
  6
CONTINUOUS
 62
    7
 10
48.620117300687525
 20
595.99999999999943
 11
1488.6201173006875
 21
595.99999999999943
  0
LINE
  8
_0-a_
  6
CONTINUOUS
 62
    7
 10
480.6201653006874
 20
595.99999999999943
 11
480.6201653006874
 21
548
  0
LINE
  8
_0-a_
  6
CONTINUOUS
 62
    7
 10
48.620117300687525
 20
2212.0000000000009
 11
480.6201653006874
 21
2212.0000000000009
  0
LINE
  8
_0-a_
  6
CONTINUOUS
 62
    7
 10
48.620117300687525
 20
1795.9999999999998
 11
480.6201653006874
 21
1795.9999999999998
  0
LINE
  8
_0-a_
  6
CONTINUOUS
 62
    7
 10
48.620117300687525
 20
1843.9999999999998
 11
1488.6201173006875
 21
1843.9999999999998
  0
LINE
  8
_0-a_
  6
CONTINUOUS
 62
    7
 10
480.6201653006874
 20
1843.9999999999998
 11
480.6201653006874
 21
1795.9999999999998
  0
LINE
  8
_0-a_
  6
CONTINUOUS
 62
    7
 10
48.620117300687525
 20
1427.9999999999998
 11
1488.6201173006875
 21
1427.9999999999998
  0
LINE
  8
_0-a_
  6
CONTINUOUS
 62
    7
 10
48.620117300687525
 20
1379.9999999999998
 11
480.6201653006874
 21
1379.9999999999998
  0
LINE
  8
_0-a_
  6
CONTINUOUS
 62
    7
 10
480.6201653006874
 20
1427.9999999999998
 11
480.6201653006874
 21
1379.9999999999998
  0
LINE
  8
_0-a_
  6
CONTINUOUS
 62
    7
 10
48.620117300687525
 20
1011.9999999999994
 11
1488.6201173006875
 21
1011.9999999999994
  0
LINE
  8
_0-a_
  6
CONTINUOUS
 62
    7
 10
48.620117300687525
 20
180
 11
1488.6201173006866
 21
180
  0
LINE
  8
_0-a_
  6
CONTINUOUS
 62
    7
 10
448.62011730068753
 20
180
 11
448.62011730068753
 21
116
  0
LINE
  8
_0-a_
  6
CONTINUOUS
 62
    7
 10
896.6201173006865
 20
180
 11
896.6201173006865
 21
116
  0
LINE
  8
_0-a_
  6
CONTINUOUS
 62
    7
 10
1296.6201173006875
 20
156
 11
1488.6201173006866
 21
156
  0
LINE
  8
_0-a_
  6
CONTINUOUS
 62
    7
 10
1296.6201173006875
 20
180
 11
1296.6201173006875
 21
116
  0
LINE
  8
_0-a_
  6
CONTINUOUS
 62
    7
 10
1392.6201173006866
 20
180
 11
1392.6201173006866
 21
116
  0
TEXT
  8
_0-a_
 62
    7
 10
80.62011730068707
 20
135.99999999999977
 40
24.000000000000227
 41
0.9999999999999906
 50
0
  1
メ－ス（押出成形セメント板）
  0
TEXT
  8
_0-a_
 62
    7
 10
528.62011730068753
 20
135.99999999999977
 40
24
 41
0.9999999999999995
 50
0
  1
アイカテック建材株式会社
  0
TEXT
  8
_0-a_
 62
    7
 10
1307.1201173006875
 20
160.5
 40
15
 41
1
 50
0
  1
ＳＣＡＬＥ
  0
TEXT
  8
_0-a_
 62
    7
 10
1414.3701173006871
 20
160.5
 40
15
 41
1
 50
0
  1
図面No.
  0
TEXT
  8
_0-a_
 62
    7
 10
1323.6201173006871
 20
121.99999999999977
 40
28
 41
1
 50
0
  1
1/8
  0
LINE
  8
_0-a_
  6
CONTINUOUS
 62
    7
 10
48.620117300687525
 20
116
 11
1488.6201173006875
 21
116
  0
LINE
  8
_0-a_
  6
CONTINUOUS
 62
    7
 10
1488.6201173006875
 20
2260
 11
1488.6201173006875
 21
116
  0
TEXT
  8
_0-a_
 62
    7
 10
1405.6201173006871
 20
121.99999999999977
 40
28
 41
1
 50
0
  1
S-6-1
  0
TEXT
  8
_0-a_
 62
    7
 10
952.77002583979299
 20
136
 40
24.000000000000227
 41
0.9999999999999924
 50
0
  1
メースベルエーラ用パネル
  0
TEXT
  8
_0-a_
 62
    7
 10
81.916574120584301
 20
2221.2866605987538
 40
28
 41
1
 50
0
  1
MNA1-7560
  0
LINE
  8
_0-9_ADD_LINE
  6
CONTINUOUS
 62
    7
 10
169.532876104455
 20
1582.0000149999998
 11
167.97997110445522
 21
1587.7956099999999
  0
LINE
  8
_0-9_ADD_LINE
  6
CONTINUOUS
 62
    7
 10
169.532876104455
 20
1582.0000149999998
 11
171.08581110445471
 21
1587.7956099999999
  0
LINE
  8
_0-0_LAY
  6
CONTINUOUS
 62
    2
 10
167.92631610445551
 20
2072.9999499999994
 11
165.92632610445571
 21
2070.9999399999997
  0
LINE
  8
_0-0_LAY
  6
CONTINUOUS
 62
    2
 10
185.92630610445553
 20
2041.0000199999995
 11
185.92630610445553
 21
2015.0000099999997
  0
LINE
  8
_0-0_LAY
  6
CONTINUOUS
 62
    2
 10
168.92624610445591
 20
2043.9999499999997
 11
182.92625610445566
 21
2043.9999499999997
  0
LINE
  8
_0-0_LAY
  6
CONTINUOUS
 62
    2
 10
182.92625610445566
 20
2011.9999499999994
 11
168.92624610445591
 21
2011.9999499999994
  0
LINE
  8
_0-0_LAY
  6
CONTINUOUS
 62
    2
 10
775.92613610445551
 20
2038.0000599999998
 11
775.92613610445551
 21
2018.0000099999997
  0
LINE
  8
_0-0_LAY
  6
CONTINUOUS
 62
    2
 10
772.92637610445558
 20
2041.0000199999995
 11
758.92618610445516
 21
2041.0000199999995
  0
LINE
  8
_0-0_LAY
  6
CONTINUOUS
 62
    2
 10
772.92637610445558
 20
2015.0000099999997
 11
758.92618610445516
 21
2015.0000099999997
  0
LINE
  8
_0-0_LAY
  6
CONTINUOUS
 62
    2
 10
165.92632610445571
 20
2000.0000099999997
 11
165.92632610445571
 21
2008.9999599999996
  0
LINE
  8
_0-0_LAY
  6
CONTINUOUS
 62
    2
 10
165.92632610445571
 20
2000.0000099999997
 11
167.92631610445551
 21
1997.9999999999998
  0
LINE
  8
_0-0_LAY
  6
CONTINUOUS
 62
    2
 10
755.92637610445536
 20
2000.0000099999997
 11
755.92637610445536
 21
2011.9999499999994
  0
LINE
  8
_0-0_LAY
  6
CONTINUOUS
 62
    2
 10
755.92637610445536
 20
2000.0000099999997
 11
753.92636610445516
 21
1997.9999999999998
  0
LINE
  8
_0-0_LAY
  6
CONTINUOUS
 62
    2
 10
198.92633610445591
 20
2013.9999999999995
 11
198.92633610445591
 21
2041.9999899999998
  0
LINE
  8
_0-0_LAY
  6
CONTINUOUS
 62
    2
 10
753.92636610445516
 20
1997.9999999999998
 11
167.92631610445551
 21
1997.9999999999998
  0
LINE
  8
_0-0_LAY
  6
CONTINUOUS
 62
    2
 10
251.42633610445591
 20
2044.9999799999996
 11
201.92639610445576
 21
2044.9999799999996
  0
LINE
  8
_0-0_LAY
  6
CONTINUOUS
 62
    2
 10
254.42632610445571
 20
2014.0000499999996
 11
254.42632610445571
 21
2041.9999699999998
  0
LINE
  8
_0-0_LAY
  6
CONTINUOUS
 62
    2
 10
251.42633610445591
 20
2011.0000399999994
 11
201.92639610445576
 21
2011.0000399999994
  0
LINE
  8
_0-0_LAY
  6
CONTINUOUS
 62
    2
 10
267.42632610445571
 20
2014.0000499999996
 11
267.42632610445571
 21
2041.9999699999998
  0
LINE
  8
_0-0_LAY
  6
CONTINUOUS
 62
    2
 10
321.42630610445576
 20
2044.9999799999996
 11
270.42633610445569
 21
2044.9999799999996
  0
LINE
  8
_0-0_LAY
  6
CONTINUOUS
 62
    2
 10
324.42631610445551
 20
2014.0000499999996
 11
324.42631610445551
 21
2041.9999699999998
  0
LINE
  8
_0-0_LAY
  6
CONTINUOUS
 62
    2
 10
321.42630610445576
 20
2011.0000399999994
 11
270.42633610445569
 21
2011.0000399999994
  0
LINE
  8
_0-0_LAY
  6
CONTINUOUS
 62
    2
 10
337.42632610445548
 20
2014.0000499999996
 11
337.42632610445548
 21
2041.9999699999998
  0
LINE
  8
_0-0_LAY
  6
CONTINUOUS
 62
    2
 10
391.42630610445553
 20
2044.9999799999996
 11
340.42633610445591
 21
2044.9999799999996
  0
LINE
  8
_0-0_LAY
  6
CONTINUOUS
 62
    2
 10
394.42631610445551
 20
2014.0000499999996
 11
394.42631610445551
 21
2041.9999699999998
  0
LINE
  8
_0-0_LAY
  6
CONTINUOUS
 62
    2
 10
391.42630610445553
 20
2011.0000399999994
 11
340.42633610445591
 21
2011.0000399999994
  0
LINE
  8
_0-0_LAY
  6
CONTINUOUS
 62
    2
 10
407.42633610445591
 20
2014.0000499999996
 11
407.42633610445591
 21
2041.9999699999998
  0
LINE
  8
_0-0_LAY
  6
CONTINUOUS
 62
    2
 10
461.42631610445528
 20
2044.9999799999996
 11
410.42634610445566
 21
2044.9999799999996
  0
LINE
  8
_0-0_LAY
  6
CONTINUOUS
 62
    2
 10
464.42632610445526
 20
2014.0000499999996
 11
464.42632610445526
 21
2041.9999699999998
  0
LINE
  8
_0-0_LAY
  6
CONTINUOUS
 62
    2
 10
461.42631610445528
 20
2011.0000399999994
 11
410.42634610445566
 21
2011.0000399999994
  0
LINE
  8
_0-0_LAY
  6
CONTINUOUS
 62
    2
 10
477.42631610445505
 20
2014.0000499999996
 11
477.42631610445505
 21
2041.9999699999998
  0
LINE
  8
_0-0_LAY
  6
CONTINUOUS
 62
    2
 10
531.4262961044551
 20
2044.9999799999996
 11
480.42632610445571
 21
2044.9999799999996
  0
LINE
  8
_0-0_LAY
  6
CONTINUOUS
 62
    2
 10
534.42630610445576
 20
2014.0000499999996
 11
534.42630610445576
 21
2041.9999699999998
  0
LINE
  8
_0-0_LAY
  6
CONTINUOUS
 62
    2
 10
531.4262961044551
 20
2011.0000399999994
 11
480.42632610445571
 21
2011.0000399999994
  0
LINE
  8
_0-0_LAY
  6
CONTINUOUS
 62
    2
 10
547.42630610445553
 20
2014.0000499999996
 11
547.42630610445553
 21
2041.9999699999998
  0
LINE
  8
_0-0_LAY
  6
CONTINUOUS
 62
    2
 10
601.42628610445558
 20
2044.9999799999996
 11
550.42636610445538
 21
2044.9999799999996
  0
LINE
  8
_0-0_LAY
  6
CONTINUOUS
 62
    2
 10
604.42634610445543
 20
2014.0000499999996
 11
604.42634610445543
 21
2041.9999699999998
  0
LINE
  8
_0-0_LAY
  6
CONTINUOUS
 62
    2
 10
601.42628610445558
 20
2011.0000399999994
 11
550.42636610445538
 21
2011.0000399999994
  0
LINE
  8
_0-0_LAY
  6
CONTINUOUS
 62
    2
 10
617.42633610445591
 20
2014.0000499999996
 11
617.42633610445591
 21
2041.9999699999998
  0
LINE
  8
_0-0_LAY
  6
CONTINUOUS
 62
    2
 10
671.42631610445528
 20
2044.9999799999996
 11
620.42634610445521
 21
2044.9999799999996
  0
LINE
  8
_0-0_LAY
  6
CONTINUOUS
 62
    2
 10
674.42632610445526
 20
2014.0000499999996
 11
674.42632610445526
 21
2041.9999699999998
  0
LINE
  8
_0-0_LAY
  6
CONTINUOUS
 62
    2
 10
671.42631610445528
 20
2011.0000399999994
 11
620.42634610445521
 21
2011.0000399999994
  0
LINE
  8
_0-0_LAY
  6
CONTINUOUS
 62
    2
 10
687.42631610445505
 20
2014.0000499999996
 11
687.42631610445505
 21
2041.9999699999998
  0
LINE
  8
_0-0_LAY
  6
CONTINUOUS
 62
    2
 10
739.92631610445505
 20
2044.9999799999996
 11
690.42632610445571
 21
2044.9999799999996
  0
LINE
  8
_0-0_LAY
  6
CONTINUOUS
 62
    2
 10
742.92632610445571
 20
2014.0000499999996
 11
742.92632610445571
 21
2041.9999699999998
  0
LINE
  8
_0-0_LAY
  6
CONTINUOUS
 62
    2
 10
739.92631610445505
 20
2011.0000399999994
 11
690.42632610445571
 21
2011.0000399999994
  0
ARC
  8
_0-0_LAY
  6
CONTINUOUS
 62
    2
 10
201.92639610445576
 20
2041.9999899999998
 40
3.0000001999999992
 50
90
 51
180
  0
ARC
  8
_0-0_LAY
  6
CONTINUOUS
 62
    2
 10
772.92637610445558
 20
2038.0000599999998
 40
3.0000001999999992
 50
0
 51
90
  0
ARC
  8
_0-0_LAY
  6
CONTINUOUS
 62
    2
 10
758.92618610445516
 20
2043.9999499999997
 40
3.0000001999999992
 50
180
 51
270
  0
ARC
  8
_0-0_LAY
  6
CONTINUOUS
 62
    2
 10
758.92618610445516
 20
2011.9999499999994
 40
3.0000001999999992
 50
90
 51
180
  0
ARC
  8
_0-0_LAY
  6
CONTINUOUS
 62
    2
 10
772.92637610445558
 20
2018.0000099999997
 40
3.0000001999999992
 50
270
 51
0
  0
ARC
  8
_0-0_LAY
  6
CONTINUOUS
 62
    2
 10
182.92625610445566
 20
2041.0000199999995
 40
3.0000001999999992
 50
0
 51
90
  0
ARC
  8
_0-0_LAY
  6
CONTINUOUS
 62
    2
 10
168.92624610445591
 20
2047.0000399999994
 40
3.0000001999999992
 50
180
 51
270
  0
ARC
  8
_0-0_LAY
  6
CONTINUOUS
 62
    2
 10
168.92624610445591
 20
2008.9999599999996
 40
3.0000001999999992
 50
90
 51
180
  0
ARC
  8
_0-0_LAY
  6
CONTINUOUS
 62
    2
 10
182.92625610445566
 20
2015.0000099999997
 40
3.0000001999999992
 50
270
 51
0
  0
ARC
  8
_0-0_LAY
  6
CONTINUOUS
 62
    2
 10
201.92639610445576
 20
2013.9999999999995
 40
3.0000001999999992
 50
180
 51
270
  0
ARC
  8
_0-0_LAY
  6
CONTINUOUS
 62
    2
 10
251.42633610445591
 20
2041.9999699999998
 40
3
 50
0
 51
90
  0
ARC
  8
_0-0_LAY
  6
CONTINUOUS
 62
    2
 10
251.42633610445591
 20
2014.0000499999996
 40
3
 50
270
 51
0
  0
ARC
  8
_0-0_LAY
  6
CONTINUOUS
 62
    2
 10
270.42633610445569
 20
2041.9999699999998
 40
3
 50
90
 51
180
  0
ARC
  8
_0-0_LAY
  6
CONTINUOUS
 62
    2
 10
270.42633610445569
 20
2014.0000499999996
 40
3
 50
180
 51
270
  0
ARC
  8
_0-0_LAY
  6
CONTINUOUS
 62
    2
 10
321.42630610445576
 20
2041.9999699999998
 40
3
 50
0
 51
90
  0
ARC
  8
_0-0_LAY
  6
CONTINUOUS
 62
    2
 10
321.42630610445576
 20
2014.0000499999996
 40
3
 50
270
 51
0
  0
ARC
  8
_0-0_LAY
  6
CONTINUOUS
 62
    2
 10
340.42633610445591
 20
2041.9999699999998
 40
3
 50
90
 51
180
  0
ARC
  8
_0-0_LAY
  6
CONTINUOUS
 62
    2
 10
340.42633610445591
 20
2014.0000499999996
 40
3
 50
180
 51
270
  0
ARC
  8
_0-0_LAY
  6
CONTINUOUS
 62
    2
 10
391.42630610445553
 20
2041.9999699999998
 40
3
 50
0
 51
90
  0
ARC
  8
_0-0_LAY
  6
CONTINUOUS
 62
    2
 10
391.42630610445553
 20
2014.0000499999996
 40
3
 50
270
 51
0
  0
ARC
  8
_0-0_LAY
  6
CONTINUOUS
 62
    2
 10
410.42634610445566
 20
2041.9999699999998
 40
3
 50
90
 51
180
  0
ARC
  8
_0-0_LAY
  6
CONTINUOUS
 62
    2
 10
410.42634610445566
 20
2014.0000499999996
 40
3
 50
180
 51
270
  0
ARC
  8
_0-0_LAY
  6
CONTINUOUS
 62
    2
 10
461.42631610445528
 20
2041.9999699999998
 40
3
 50
0
 51
90
  0
ARC
  8
_0-0_LAY
  6
CONTINUOUS
 62
    2
 10
461.42631610445528
 20
2014.0000499999996
 40
3
 50
270
 51
0
  0
ARC
  8
_0-0_LAY
  6
CONTINUOUS
 62
    2
 10
480.42632610445571
 20
2041.9999699999998
 40
3
 50
90
 51
180
  0
ARC
  8
_0-0_LAY
  6
CONTINUOUS
 62
    2
 10
480.42632610445571
 20
2014.0000499999996
 40
3
 50
180
 51
270
  0
ARC
  8
_0-0_LAY
  6
CONTINUOUS
 62
    2
 10
531.4262961044551
 20
2041.9999699999998
 40
3
 50
0
 51
90
  0
ARC
  8
_0-0_LAY
  6
CONTINUOUS
 62
    2
 10
531.4262961044551
 20
2014.0000499999996
 40
3
 50
270
 51
0
  0
ARC
  8
_0-0_LAY
  6
CONTINUOUS
 62
    2
 10
550.42636610445538
 20
2041.9999699999998
 40
3
 50
90
 51
180
  0
ARC
  8
_0-0_LAY
  6
CONTINUOUS
 62
    2
 10
550.42636610445538
 20
2014.0000499999996
 40
3
 50
180
 51
270
  0
ARC
  8
_0-0_LAY
  6
CONTINUOUS
 62
    2
 10
601.42628610445558
 20
2041.9999699999998
 40
3
 50
0
 51
90
  0
ARC
  8
_0-0_LAY
  6
CONTINUOUS
 62
    2
 10
601.42628610445558
 20
2014.0000499999996
 40
3
 50
270
 51
0
  0
ARC
  8
_0-0_LAY
  6
CONTINUOUS
 62
    2
 10
620.42634610445521
 20
2041.9999699999998
 40
3
 50
90
 51
180
  0
ARC
  8
_0-0_LAY
  6
CONTINUOUS
 62
    2
 10
620.42634610445521
 20
2014.0000499999996
 40
3
 50
180
 51
270
  0
ARC
  8
_0-0_LAY
  6
CONTINUOUS
 62
    2
 10
671.42631610445528
 20
2041.9999699999998
 40
3
 50
0
 51
90
  0
ARC
  8
_0-0_LAY
  6
CONTINUOUS
 62
    2
 10
671.42631610445528
 20
2014.0000499999996
 40
3
 50
270
 51
0
  0
ARC
  8
_0-0_LAY
  6
CONTINUOUS
 62
    2
 10
690.42632610445571
 20
2041.9999699999998
 40
3
 50
90
 51
180
  0
ARC
  8
_0-0_LAY
  6
CONTINUOUS
 62
    2
 10
690.42632610445571
 20
2014.0000499999996
 40
3
 50
180
 51
270
  0
ARC
  8
_0-0_LAY
  6
CONTINUOUS
 62
    2
 10
739.92631610445505
 20
2041.9999699999998
 40
3
 50
0
 51
90
  0
ARC
  8
_0-0_LAY
  6
CONTINUOUS
 62
    2
 10
739.92631610445505
 20
2014.0000499999996
 40
3
 50
270
 51
0
  0
LINE
  8
_0-0_LAY
  6
CONTINUOUS
 62
    2
 10
753.92636610445516
 20
2072.9999499999994
 11
755.92637610445536
 21
2070.9999399999997
  0
LINE
  8
_0-0_LAY
  6
CONTINUOUS
 62
    2
 10
165.92632610445571
 20
2070.9999399999997
 11
165.92632610445571
 21
2047.0000399999994
  0
LINE
  8
_0-0_LAY
  6
CONTINUOUS
 62
    2
 10
755.92637610445536
 20
2070.9999399999997
 11
755.92637610445536
 21
2043.9999499999997
  0
LINE
  8
_0-0_LAY
  6
CONTINUOUS
 62
    2
 10
753.92636610445516
 20
2072.9999499999994
 11
167.92632610445548
 21
2072.9999499999994
  0
LINE
  8
_0-9_ADD_LINE
  6
CONTINUOUS
 62
    7
 10
165.92632610445617
 20
2132.9999499999994
 11
165.92632610445617
 21
2102.9998999999998
  0
LINE
  8
_0-9_ADD_LINE
  6
CONTINUOUS
 62
    7
 10
185.92632610445617
 20
2132.9999499999994
 11
185.92632610445617
 21
2102.9998999999998
  0
LINE
  8
_0-9_ADD_LINE
  6
CONTINUOUS
 62
    7
 10
198.92632610445617
 20
2132.9999499999994
 11
198.92632610445617
 21
2102.9998999999998
  0
LINE
  8
_0-9_ADD_LINE
  6
CONTINUOUS
 62
    7
 10
254.42632610445617
 20
2132.9999499999994
 11
254.42632610445617
 21
2102.9998999999998
  0
LINE
  8
_0-9_ADD_LINE
  6
CONTINUOUS
 62
    7
 10
267.42632610445617
 20
2132.9999499999994
 11
267.42632610445617
 21
2102.9998999999998
  0
LINE
  8
_0-9_ADD_LINE
  6
CONTINUOUS
 62
    7
 10
324.42632610445617
 20
2132.9999499999994
 11
324.42632610445617
 21
2102.9998999999998
  0
LINE
  8
_0-9_ADD_LINE
  6
CONTINUOUS
 62
    7
 10
337.42632610445617
 20
2132.9999499999994
 11
337.42632610445617
 21
2102.9998999999998
  0
LINE
  8
_0-9_ADD_LINE
  6
CONTINUOUS
 62
    7
 10
394.42632610445617
 20
2132.9999499999994
 11
394.42632610445617
 21
2102.9998999999998
  0
LINE
  8
_0-9_ADD_LINE
  6
CONTINUOUS
 62
    7
 10
407.42632610445617
 20
2132.9999499999994
 11
407.42632610445617
 21
2102.9998999999998
  0
LINE
  8
_0-9_ADD_LINE
  6
CONTINUOUS
 62
    7
 10
464.42632610445617
 20
2132.9999499999994
 11
464.42632610445617
 21
2102.9998999999998
  0
LINE
  8
_0-9_ADD_LINE
  6
CONTINUOUS
 62
    7
 10
477.42632610445617
 20
2132.9999499999994
 11
477.42632610445617
 21
2102.9998999999998
  0
LINE
  8
_0-9_ADD_LINE
  6
CONTINUOUS
 62
    7
 10
534.42632610445617
 20
2132.9999499999994
 11
534.42632610445617
 21
2102.9998999999998
  0
LINE
  8
_0-9_ADD_LINE
  6
CONTINUOUS
 62
    7
 10
547.42632610445617
 20
2132.9999499999994
 11
547.42632610445617
 21
2102.9998999999998
  0
LINE
  8
_0-9_ADD_LINE
  6
CONTINUOUS
 62
    7
 10
604.42632610445617
 20
2132.9999499999994
 11
604.42632610445617
 21
2102.9998999999998
  0
LINE
  8
_0-9_ADD_LINE
  6
CONTINUOUS
 62
    7
 10
617.42632610445617
 20
2132.9999499999994
 11
617.42632610445617
 21
2102.9998999999998
  0
LINE
  8
_0-9_ADD_LINE
  6
CONTINUOUS
 62
    7
 10
674.42632610445617
 20
2132.9999499999994
 11
674.42632610445617
 21
2102.9998999999998
  0
LINE
  8
_0-9_ADD_LINE
  6
CONTINUOUS
 62
    7
 10
687.42632610445617
 20
2132.9999499999994
 11
687.42632610445617
 21
2102.9998999999998
  0
LINE
  8
_0-9_ADD_LINE
  6
CONTINUOUS
 62
    7
 10
742.92632610445617
 20
2132.9999499999994
 11
742.92632610445617
 21
2102.9998999999998
  0
LINE
  8
_0-9_ADD_LINE
  6
CONTINUOUS
 62
    7
 10
105.92633610445569
 20
2072.9999499999994
 11
135.92633610445569
 21
2072.9999499999994
  0
LINE
  8
_0-9_ADD_LINE
  6
CONTINUOUS
 62
    7
 10
105.92633610445569
 20
1997.9999999999998
 11
135.92633610445569
 21
1997.9999999999998
  0
LINE
  8
_0-9_ADD_LINE
  6
CONTINUOUS
 62
    7
 10
755.92632610445617
 20
1938.003751654471
 11
755.92632610445617
 21
1968.0038016544711
  0
LINE
  8
_0-9_ADD_LINE
  6
CONTINUOUS
 62
    7
 10
775.92632610445617
 20
1938.003751654471
 11
775.92632610445617
 21
1968.0038016544711
  0
LINE
  8
_0-9_ADD_LINE
  6
CONTINUOUS
 62
    7
 10
835.94420671363287
 20
1997.9999999999998
 11
805.94415671363276
 21
1997.9999999999998
  0
LINE
  8
_0-9_ADD_LINE
  6
CONTINUOUS
 62
    7
 10
835.94420671363287
 20
2014.9999999999998
 11
805.94415671363276
 21
2014.9999999999998
  0
LINE
  8
_0-9_ADD_LINE
  6
CONTINUOUS
 62
    7
 10
835.94420671363287
 20
2040.9999999999998
 11
805.94415671363276
 21
2040.9999999999998
  0
LINE
  8
_0-9_ADD_LINE
  6
CONTINUOUS
 62
    7
 10
835.94420671363287
 20
2073
 11
805.94415671363276
 21
2073
  0
LINE
  8
_0-9_ADD_LINE
  6
CONTINUOUS
 62
    7
 10
165.92632610445617
 20
1938.003751654471
 11
165.92632610445617
 21
1968.0038016544711
  0
LINE
  8
_0-9_ADD_LINE
  6
CONTINUOUS
 62
    7
 10
165.92632610445617
 20
2132.9999499999994
 11
185.92632610445617
 21
2132.9999499999994
  0
POINT
  8
_0-9_ADD_LINE
 62
    7
 10
165.92632610445617
 20
2132.9999499999994
  0
POINT
  8
_0-9_ADD_LINE
 62
    7
 10
185.92632610445617
 20
2132.9999499999994
  0
LINE
  8
_0-9_ADD_LINE
  6
CONTINUOUS
 62
    7
 10
165.92632610445617
 20
2132.9999499999994
 11
165.92632610445617
 21
2111.8048376850593
  0
LINE
  8
_0-9_ADD_LINE
  6
CONTINUOUS
 62
    7
 10
185.92632610445617
 20
2132.9999499999994
 11
185.92632610445617
 21
2111.8048376850593
  0
TEXT
  8
_0-9_ADD_LINE
 62
    7
 10
167.92632610445617
 20
2136.9999499999994
 40
16
 41
1
 50
0
  1
20
  0
LINE
  8
_0-9_ADD_LINE
  6
CONTINUOUS
 62
    7
 10
185.92632610445617
 20
2132.9999499999994
 11
198.92632610445617
 21
2132.9999499999994
  0
POINT
  8
_0-9_ADD_LINE
 62
    7
 10
198.92632610445617
 20
2132.9999499999994
  0
LINE
  8
_0-9_ADD_LINE
  6
CONTINUOUS
 62
    7
 10
198.92632610445617
 20
2132.9999499999994
 11
198.92632610445617
 21
2111.8048376850593
  0
TEXT
  8
_0-9_ADD_LINE
 62
    7
 10
184.42632610445617
 20
2136.9999499999994
 40
16
 41
1
 50
0
  1
13
  0
LINE
  8
_0-9_ADD_LINE
  6
CONTINUOUS
 62
    7
 10
198.92632610445617
 20
2132.9999499999994
 11
254.42632610445617
 21
2132.9999499999994
  0
POINT
  8
_0-9_ADD_LINE
 62
    7
 10
254.42632610445617
 20
2132.9999499999994
  0
LINE
  8
_0-9_ADD_LINE
  6
CONTINUOUS
 62
    7
 10
254.42632610445617
 20
2132.9999499999994
 11
254.42632610445617
 21
2111.8048376850593
  0
TEXT
  8
_0-9_ADD_LINE
 62
    7
 10
210.67632610445617
 20
2136.9999499999994
 40
16
 41
1
 50
0
  1
55.5
  0
LINE
  8
_0-9_ADD_LINE
  6
CONTINUOUS
 62
    7
 10
254.42632610445617
 20
2132.9999499999994
 11
267.42632610445617
 21
2132.9999499999994
  0
POINT
  8
_0-9_ADD_LINE
 62
    7
 10
267.42632610445617
 20
2132.9999499999994
  0
LINE
  8
_0-9_ADD_LINE
  6
CONTINUOUS
 62
    7
 10
267.42632610445617
 20
2132.9999499999994
 11
267.42632610445617
 21
2111.8048376850593
  0
TEXT
  8
_0-9_ADD_LINE
 62
    7
 10
252.92632610445617
 20
2136.9999499999994
 40
16
 41
1
 50
0
  1
13
  0
LINE
  8
_0-9_ADD_LINE
  6
CONTINUOUS
 62
    7
 10
267.42632610445617
 20
2132.9999499999994
 11
324.42632610445617
 21
2132.9999499999994
  0
POINT
  8
_0-9_ADD_LINE
 62
    7
 10
324.42632610445617
 20
2132.9999499999994
  0
LINE
  8
_0-9_ADD_LINE
  6
CONTINUOUS
 62
    7
 10
324.42632610445617
 20
2132.9999499999994
 11
324.42632610445617
 21
2111.8048376850593
  0
TEXT
  8
_0-9_ADD_LINE
 62
    7
 10
287.92632610445617
 20
2136.9999499999994
 40
16
 41
1
 50
0
  1
57
  0
LINE
  8
_0-9_ADD_LINE
  6
CONTINUOUS
 62
    7
 10
324.42632610445617
 20
2132.9999499999994
 11
337.42632610445617
 21
2132.9999499999994
  0
POINT
  8
_0-9_ADD_LINE
 62
    7
 10
324.42632610445617
 20
2132.9999499999994
  0
POINT
  8
_0-9_ADD_LINE
 62
    7
 10
337.42632610445617
 20
2132.9999499999994
  0
LINE
  8
_0-9_ADD_LINE
  6
CONTINUOUS
 62
    7
 10
324.42632610445617
 20
2132.9999499999994
 11
324.42632610445617
 21
2120.762632689366
  0
LINE
  8
_0-9_ADD_LINE
  6
CONTINUOUS
 62
    7
 10
337.42632610445617
 20
2132.9999499999994
 11
337.42632610445617
 21
2120.762632689366
  0
TEXT
  8
_0-9_ADD_LINE
 62
    7
 10
322.92632610445617
 20
2136.9999499999994
 40
16
 41
1
 50
0
  1
13
  0
LINE
  8
_0-9_ADD_LINE
  6
CONTINUOUS
 62
    7
 10
337.42632610445617
 20
2132.9999499999994
 11
394.42632610445617
 21
2132.9999499999994
  0
POINT
  8
_0-9_ADD_LINE
 62
    7
 10
394.42632610445617
 20
2132.9999499999994
  0
LINE
  8
_0-9_ADD_LINE
  6
CONTINUOUS
 62
    7
 10
394.42632610445617
 20
2132.9999499999994
 11
394.42632610445617
 21
2120.762632689366
  0
TEXT
  8
_0-9_ADD_LINE
 62
    7
 10
357.92632610445617
 20
2136.9999499999994
 40
16
 41
1
 50
0
  1
57
  0
LINE
  8
_0-9_ADD_LINE
  6
CONTINUOUS
 62
    7
 10
394.42632610445617
 20
2132.9999499999994
 11
407.42632610445617
 21
2132.9999499999994
  0
POINT
  8
_0-9_ADD_LINE
 62
    7
 10
407.42632610445617
 20
2132.9999499999994
  0
LINE
  8
_0-9_ADD_LINE
  6
CONTINUOUS
 62
    7
 10
407.42632610445617
 20
2132.9999499999994
 11
407.42632610445617
 21
2120.762632689366
  0
TEXT
  8
_0-9_ADD_LINE
 62
    7
 10
392.92632610445617
 20
2136.9999499999994
 40
16
 41
1
 50
0
  1
13
  0
LINE
  8
_0-9_ADD_LINE
  6
CONTINUOUS
 62
    7
 10
407.42632610445617
 20
2132.9999499999994
 11
464.42632610445617
 21
2132.9999499999994
  0
POINT
  8
_0-9_ADD_LINE
 62
    7
 10
464.42632610445617
 20
2132.9999499999994
  0
LINE
  8
_0-9_ADD_LINE
  6
CONTINUOUS
 62
    7
 10
464.42632610445617
 20
2132.9999499999994
 11
464.42632610445617
 21
2120.762632689366
  0
TEXT
  8
_0-9_ADD_LINE
 62
    7
 10
427.92632610445617
 20
2136.9999499999994
 40
16
 41
1
 50
0
  1
57
  0
LINE
  8
_0-9_ADD_LINE
  6
CONTINUOUS
 62
    7
 10
464.42632610445617
 20
2132.9999499999994
 11
477.42632610445617
 21
2132.9999499999994
  0
POINT
  8
_0-9_ADD_LINE
 62
    7
 10
477.42632610445617
 20
2132.9999499999994
  0
LINE
  8
_0-9_ADD_LINE
  6
CONTINUOUS
 62
    7
 10
477.42632610445617
 20
2132.9999499999994
 11
477.42632610445617
 21
2120.762632689366
  0
TEXT
  8
_0-9_ADD_LINE
 62
    7
 10
462.92632610445617
 20
2136.9999499999994
 40
16
 41
1
 50
0
  1
13
  0
LINE
  8
_0-9_ADD_LINE
  6
CONTINUOUS
 62
    7
 10
477.42632610445617
 20
2132.9999499999994
 11
534.42632610445617
 21
2132.9999499999994
  0
POINT
  8
_0-9_ADD_LINE
 62
    7
 10
534.42632610445617
 20
2132.9999499999994
  0
LINE
  8
_0-9_ADD_LINE
  6
CONTINUOUS
 62
    7
 10
534.42632610445617
 20
2132.9999499999994
 11
534.42632610445617
 21
2120.762632689366
  0
TEXT
  8
_0-9_ADD_LINE
 62
    7
 10
497.92632610445617
 20
2136.9999499999994
 40
16
 41
1
 50
0
  1
57
  0
LINE
  8
_0-9_ADD_LINE
  6
CONTINUOUS
 62
    7
 10
534.42632610445617
 20
2132.9999499999994
 11
547.42632610445617
 21
2132.9999499999994
  0
POINT
  8
_0-9_ADD_LINE
 62
    7
 10
547.42632610445617
 20
2132.9999499999994
  0
LINE
  8
_0-9_ADD_LINE
  6
CONTINUOUS
 62
    7
 10
547.42632610445617
 20
2132.9999499999994
 11
547.42632610445617
 21
2120.762632689366
  0
TEXT
  8
_0-9_ADD_LINE
 62
    7
 10
532.92632610445617
 20
2136.9999499999994
 40
16
 41
1
 50
0
  1
13
  0
LINE
  8
_0-9_ADD_LINE
  6
CONTINUOUS
 62
    7
 10
547.42632610445617
 20
2132.9999499999994
 11
604.42632610445617
 21
2132.9999499999994
  0
POINT
  8
_0-9_ADD_LINE
 62
    7
 10
604.42632610445617
 20
2132.9999499999994
  0
LINE
  8
_0-9_ADD_LINE
  6
CONTINUOUS
 62
    7
 10
604.42632610445617
 20
2132.9999499999994
 11
604.42632610445617
 21
2120.762632689366
  0
TEXT
  8
_0-9_ADD_LINE
 62
    7
 10
567.92632610445617
 20
2136.9999499999994
 40
16
 41
1
 50
0
  1
57
  0
LINE
  8
_0-9_ADD_LINE
  6
CONTINUOUS
 62
    7
 10
604.42632610445617
 20
2132.9999499999994
 11
617.42632610445617
 21
2132.9999499999994
  0
POINT
  8
_0-9_ADD_LINE
 62
    7
 10
617.42632610445617
 20
2132.9999499999994
  0
LINE
  8
_0-9_ADD_LINE
  6
CONTINUOUS
 62
    7
 10
617.42632610445617
 20
2132.9999499999994
 11
617.42632610445617
 21
2120.762632689366
  0
TEXT
  8
_0-9_ADD_LINE
 62
    7
 10
602.92632610445617
 20
2136.9999499999994
 40
16
 41
1
 50
0
  1
13
  0
LINE
  8
_0-9_ADD_LINE
  6
CONTINUOUS
 62
    7
 10
617.42632610445617
 20
2132.9999499999994
 11
674.42632610445617
 21
2132.9999499999994
  0
POINT
  8
_0-9_ADD_LINE
 62
    7
 10
674.42632610445617
 20
2132.9999499999994
  0
LINE
  8
_0-9_ADD_LINE
  6
CONTINUOUS
 62
    7
 10
674.42632610445617
 20
2132.9999499999994
 11
674.42632610445617
 21
2120.762632689366
  0
TEXT
  8
_0-9_ADD_LINE
 62
    7
 10
637.92632610445617
 20
2136.9999499999994
 40
16
 41
1
 50
0
  1
57
  0
LINE
  8
_0-9_ADD_LINE
  6
CONTINUOUS
 62
    7
 10
674.42632610445617
 20
2132.9999499999994
 11
687.42632610445617
 21
2132.9999499999994
  0
POINT
  8
_0-9_ADD_LINE
 62
    7
 10
687.42632610445617
 20
2132.9999499999994
  0
LINE
  8
_0-9_ADD_LINE
  6
CONTINUOUS
 62
    7
 10
687.42632610445617
 20
2132.9999499999994
 11
687.42632610445617
 21
2120.762632689366
  0
TEXT
  8
_0-9_ADD_LINE
 62
    7
 10
672.92632610445617
 20
2136.9999499999994
 40
16
 41
1
 50
0
  1
13
  0
LINE
  8
_0-9_ADD_LINE
  6
CONTINUOUS
 62
    7
 10
687.42632610445617
 20
2132.9999499999994
 11
742.92632610445617
 21
2132.9999499999994
  0
POINT
  8
_0-9_ADD_LINE
 62
    7
 10
742.92632610445617
 20
2132.9999499999994
  0
LINE
  8
_0-9_ADD_LINE
  6
CONTINUOUS
 62
    7
 10
742.92632610445617
 20
2132.9999499999994
 11
742.92632610445617
 21
2120.762632689366
  0
TEXT
  8
_0-9_ADD_LINE
 62
    7
 10
699.17632610445617
 20
2136.9999499999994
 40
16
 41
1
 50
0
  1
55.5
  0
LINE
  8
_0-9_ADD_LINE
  6
CONTINUOUS
 62
    7
 10
165.92632610445617
 20
1938.003751654471
 11
755.92632610445617
 21
1938.003751654471
  0
POINT
  8
_0-9_ADD_LINE
 62
    7
 10
165.92632610445617
 20
1938.003751654471
  0
POINT
  8
_0-9_ADD_LINE
 62
    7
 10
755.92632610445617
 20
1938.003751654471
  0
LINE
  8
_0-9_ADD_LINE
  6
CONTINUOUS
 62
    7
 10
165.92632610445617
 20
1938.003751654471
 11
165.92632610445617
 21
1961.9416928865144
  0
LINE
  8
_0-9_ADD_LINE
  6
CONTINUOUS
 62
    7
 10
755.92632610445617
 20
1938.003751654471
 11
755.92632610445617
 21
1961.9416928865144
  0
TEXT
  8
_0-9_ADD_LINE
 62
    7
 10
448.92632610445617
 20
1942.003751654471
 40
16
 41
1
 50
0
  1
590
  0
LINE
  8
_0-9_ADD_LINE
  6
CONTINUOUS
 62
    7
 10
755.92632610445617
 20
1938.003751654471
 11
775.92632610445617
 21
1938.003751654471
  0
POINT
  8
_0-9_ADD_LINE
 62
    7
 10
775.92632610445617
 20
1938.003751654471
  0
LINE
  8
_0-9_ADD_LINE
  6
CONTINUOUS
 62
    7
 10
775.92632610445617
 20
1938.003751654471
 11
775.92632610445617
 21
1961.9416928865144
  0
TEXT
  8
_0-9_ADD_LINE
 62
    7
 10
757.92632610445617
 20
1942.003751654471
 40
16
 41
1
 50
0
  1
20
  0
LINE
  8
_0-9_ADD_LINE
  6
CONTINUOUS
 62
    7
 10
105.92633610445569
 20
1997.9999999999998
 11
105.92633610445569
 21
2072.9999499999994
  0
POINT
  8
_0-9_ADD_LINE
 62
    7
 10
105.92633610445569
 20
1997.9999999999998
  0
POINT
  8
_0-9_ADD_LINE
 62
    7
 10
105.92633610445569
 20
2072.9999499999994
  0
LINE
  8
_0-9_ADD_LINE
  6
CONTINUOUS
 62
    7
 10
105.92633610445569
 20
1997.9999999999998
 11
125.37969609000515
 21
1997.9999999999998
  0
LINE
  8
_0-9_ADD_LINE
  6
CONTINUOUS
 62
    7
 10
105.92633610445569
 20
2072.9999499999994
 11
125.37969609000515
 21
2072.9999499999994
  0
TEXT
  8
_0-9_ADD_LINE
 62
    7
 10
101.92633610445569
 20
2027.4999749999997
 40
16
 41
1
 50
90
  1
75
  0
LINE
  8
_0-9_ADD_LINE
  6
CONTINUOUS
 62
    7
 10
835.94420671363287
 20
1997.9999999999998
 11
835.94420671363287
 21
2014.9999999999998
  0
POINT
  8
_0-9_ADD_LINE
 62
    7
 10
835.94420671363287
 20
1997.9999999999998
  0
POINT
  8
_0-9_ADD_LINE
 62
    7
 10
835.94420671363287
 20
2014.9999999999998
  0
LINE
  8
_0-9_ADD_LINE
  6
CONTINUOUS
 62
    7
 10
835.94420671363287
 20
1997.9999999999998
 11
816.1290500951734
 21
1997.9999999999998
  0
LINE
  8
_0-9_ADD_LINE
  6
CONTINUOUS
 62
    7
 10
835.94420671363287
 20
2014.9999999999998
 11
816.1290500951734
 21
2014.9999999999998
  0
TEXT
  8
_0-9_ADD_LINE
 62
    7
 10
831.94420671363287
 20
1998.4999999999998
 40
16
 41
1
 50
90
  1
17
  0
LINE
  8
_0-9_ADD_LINE
  6
CONTINUOUS
 62
    7
 10
835.94420671363287
 20
2014.9999999999998
 11
835.94420671363287
 21
2040.9999999999998
  0
POINT
  8
_0-9_ADD_LINE
 62
    7
 10
835.94420671363287
 20
2040.9999999999998
  0
LINE
  8
_0-9_ADD_LINE
  6
CONTINUOUS
 62
    7
 10
835.94420671363287
 20
2040.9999999999998
 11
816.1290500951734
 21
2040.9999999999998
  0
TEXT
  8
_0-9_ADD_LINE
 62
    7
 10
831.94420671363287
 20
2019.9999999999998
 40
16
 41
1
 50
90
  1
26
  0
LINE
  8
_0-9_ADD_LINE
  6
CONTINUOUS
 62
    7
 10
835.94420671363287
 20
2040.9999999999998
 11
835.94420671363287
 21
2073
  0
POINT
  8
_0-9_ADD_LINE
 62
    7
 10
835.94420671363287
 20
2073
  0
LINE
  8
_0-9_ADD_LINE
  6
CONTINUOUS
 62
    7
 10
835.94420671363287
 20
2073
 11
816.1290500951734
 21
2073
  0
TEXT
  8
_0-9_ADD_LINE
 62
    7
 10
831.94420671363287
 20
2049
 40
16
 41
1
 50
90
  1
32
  0
LINE
  8
_0-9_ADD_LINE
  6
CONTINUOUS
 62
    7
 10
303.01848590445525
 20
1997.9999999999998
 11
303.01848590445525
 21
2011.0000399999994
  0
POINT
  8
_0-9_ADD_LINE
 62
    7
 10
303.01848590445525
 20
1997.9999999999998
  0
POINT
  8
_0-9_ADD_LINE
 62
    7
 10
303.01848590445525
 20
2011.0000399999994
  0
LINE
  8
_0-9_ADD_LINE
  6
CONTINUOUS
 62
    7
 10
303.01848590445525
 20
1997.9999999999998
 11
311.40759881328563
 21
1997.9999999999998
  0
LINE
  8
_0-9_ADD_LINE
  6
CONTINUOUS
 62
    7
 10
303.01848590445525
 20
2011.0000399999994
 11
311.40759881328563
 21
2011.0000399999994
  0
TEXT
  8
_0-9_ADD_LINE
 62
    7
 10
299.01848590445525
 20
1996.5000199999997
 40
16
 41
1
 50
90
  1
13
  0
LINE
  8
_0-9_ADD_LINE
  6
CONTINUOUS
 62
    7
 10
303.01848590445525
 20
2011.0000399999994
 11
303.01848590445525
 21
2044.9999799999996
  0
POINT
  8
_0-9_ADD_LINE
 62
    7
 10
303.01848590445525
 20
2044.9999799999996
  0
LINE
  8
_0-9_ADD_LINE
  6
CONTINUOUS
 62
    7
 10
303.01848590445525
 20
2044.9999799999996
 11
311.40759881328563
 21
2044.9999799999996
  0
TEXT
  8
_0-9_ADD_LINE
 62
    7
 10
299.01848590445525
 20
2020.0000099999997
 40
16
 41
1
 50
90
  1
34
  0
LINE
  8
_0-9_ADD_LINE
  6
CONTINUOUS
 62
    7
 10
303.01848590445525
 20
2044.9999799999996
 11
303.01848590445525
 21
2072.9999499999994
  0
POINT
  8
_0-9_ADD_LINE
 62
    7
 10
303.01848590445525
 20
2072.9999499999994
  0
LINE
  8
_0-9_ADD_LINE
  6
CONTINUOUS
 62
    7
 10
303.01848590445525
 20
2072.9999499999994
 11
311.40759881328563
 21
2072.9999499999994
  0
TEXT
  8
_0-9_ADD_LINE
 62
    7
 10
299.01848590445525
 20
2050.999965
 40
16
 41
1
 50
90
  1
28
  0
ARC
  8
_0-0_LAY
  6
CONTINUOUS
 62
    2
 10
640.4262061044551
 20
1623.9999799999998
 40
5
 50
90
 51
180
  0
LINE
  8
_0-0_LAY
  6
CONTINUOUS
 62
    2
 10
730.92631610445551
 20
1584.0000549999997
 11
728.92621610445531
 21
1582.0000149999998
  0
LINE
  8
_0-0_LAY
  6
CONTINUOUS
 62
    2
 10
710.92623110445459
 20
1599.0000250000001
 11
710.92623110445459
 21
1624.99999
  0
LINE
  8
_0-0_LAY
  6
CONTINUOUS
 62
    2
 10
727.92616610445464
 20
1627.99999
 11
713.92623110445584
 21
1627.99999
  0
LINE
  8
_0-0_LAY
  6
CONTINUOUS
 62
    2
 10
727.92616610445464
 20
1596.0000100000009
 11
713.92623110445584
 21
1596.0000100000009
  0
LINE
  8
_0-0_LAY
  6
CONTINUOUS
 62
    2
 10
730.92631610445551
 20
1639.9999599999999
 11
730.92631610445551
 21
1631.0000050000001
  0
LINE
  8
_0-0_LAY
  6
CONTINUOUS
 62
    2
 10
728.92621610445531
 20
1641.9999999999998
 11
730.92631610445551
 21
1639.9999599999999
  0
LINE
  8
_0-0_LAY
  6
CONTINUOUS
 62
    2
 10
730.92631610445551
 20
1584.0000549999997
 11
730.92631610445551
 21
1593.00001
  0
ARC
  8
_0-0_LAY
  6
CONTINUOUS
 62
    2
 10
713.92623110445584
 20
1624.99999
 40
3
 50
90
 51
180
  0
ARC
  8
_0-0_LAY
  6
CONTINUOUS
 62
    2
 10
713.92623110445584
 20
1599.0000250000001
 40
3
 50
180
 51
270
  0
ARC
  8
_0-0_LAY
  6
CONTINUOUS
 62
    2
 10
727.92616610445464
 20
1631.0000050000001
 40
3
 50
270
 51
0
  0
ARC
  8
_0-0_LAY
  6
CONTINUOUS
 62
    2
 10
727.92616610445464
 20
1593.00001
 40
3
 50
0
 51
90
  0
LINE
  8
_0-0_LAY
  6
CONTINUOUS
 62
    2
 10
635.4262061044551
 20
1599.9999799999998
 11
635.4262061044551
 21
1623.9999799999998
  0
ARC
  8
_0-0_LAY
  6
CONTINUOUS
 62
    2
 10
640.4262061044551
 20
1599.9999799999998
 40
5
 50
180
 51
270
  0
LINE
  8
_0-0_LAY
  6
CONTINUOUS
 62
    2
 10
692.92621110445509
 20
1628.9999799999998
 11
640.4262061044551
 21
1628.9999799999998
  0
ARC
  8
_0-0_LAY
  6
CONTINUOUS
 62
    2
 10
692.92621110445509
 20
1623.9999799999998
 40
5
 50
0
 51
90
  0
LINE
  8
_0-0_LAY
  6
CONTINUOUS
 62
    2
 10
692.92621110445509
 20
1594.9999799999998
 11
640.4262061044551
 21
1594.9999799999998
  0
LINE
  8
_0-0_LAY
  6
CONTINUOUS
 62
    2
 10
697.92621110445509
 20
1599.9999799999998
 11
697.92621110445509
 21
1623.9999799999998
  0
ARC
  8
_0-0_LAY
  6
CONTINUOUS
 62
    2
 10
692.92621110445509
 20
1599.9999799999998
 40
5
 50
270
 51
0
  0
ARC
  8
_0-0_LAY
  6
CONTINUOUS
 62
    2
 10
617.42618610445447
 20
1623.9999799999998
 40
5
 50
0
 51
90
  0
LINE
  8
_0-0_LAY
  6
CONTINUOUS
 62
    2
 10
622.42618610445447
 20
1599.9999799999998
 11
622.42618610445447
 21
1623.9999799999998
  0
ARC
  8
_0-0_LAY
  6
CONTINUOUS
 62
    2
 10
617.42618610445447
 20
1599.9999799999998
 40
5
 50
270
 51
0
  0
LINE
  8
_0-0_LAY
  6
CONTINUOUS
 62
    2
 10
565.92618110445528
 20
1594.9999799999998
 11
617.42618610445447
 21
1594.9999799999998
  0
ARC
  8
_0-0_LAY
  6
CONTINUOUS
 62
    2
 10
565.92618110445528
 20
1599.9999799999998
 40
5
 50
180
 51
270
  0
LINE
  8
_0-0_LAY
  6
CONTINUOUS
 62
    2
 10
560.92618110445528
 20
1623.9999799999998
 11
560.92618110445528
 21
1599.9999799999998
  0
LINE
  8
_0-0_LAY
  6
CONTINUOUS
 62
    2
 10
565.92618110445528
 20
1628.9999799999998
 11
617.42618610445447
 21
1628.9999799999998
  0
ARC
  8
_0-0_LAY
  6
CONTINUOUS
 62
    2
 10
565.92618110445528
 20
1623.9999799999998
 40
5
 50
90
 51
180
  0
ARC
  8
_0-0_LAY
  6
CONTINUOUS
 62
    2
 10
542.92618610445516
 20
1623.9999799999998
 40
5
 50
0
 51
90
  0
LINE
  8
_0-0_LAY
  6
CONTINUOUS
 62
    2
 10
547.92618610445516
 20
1599.9999799999998
 11
547.92618610445516
 21
1623.9999799999998
  0
ARC
  8
_0-0_LAY
  6
CONTINUOUS
 62
    2
 10
542.92618610445516
 20
1599.9999799999998
 40
5
 50
270
 51
0
  0
LINE
  8
_0-0_LAY
  6
CONTINUOUS
 62
    2
 10
491.42618110445483
 20
1594.9999799999998
 11
542.92618610445516
 21
1594.9999799999998
  0
ARC
  8
_0-0_LAY
  6
CONTINUOUS
 62
    2
 10
491.42618110445483
 20
1599.9999799999998
 40
5
 50
180
 51
270
  0
LINE
  8
_0-0_LAY
  6
CONTINUOUS
 62
    2
 10
486.42618110445483
 20
1623.9999799999998
 11
486.42618110445483
 21
1599.9999799999998
  0
LINE
  8
_0-0_LAY
  6
CONTINUOUS
 62
    2
 10
491.42618110445483
 20
1628.9999799999998
 11
542.92618610445516
 21
1628.9999799999998
  0
ARC
  8
_0-0_LAY
  6
CONTINUOUS
 62
    2
 10
491.42618110445483
 20
1623.9999799999998
 40
5
 50
90
 51
180
  0
ARC
  8
_0-0_LAY
  6
CONTINUOUS
 62
    2
 10
468.4261861044547
 20
1623.9999799999998
 40
5
 50
0
 51
90
  0
LINE
  8
_0-0_LAY
  6
CONTINUOUS
 62
    2
 10
473.4261861044547
 20
1599.9999799999998
 11
473.4261861044547
 21
1623.9999799999998
  0
ARC
  8
_0-0_LAY
  6
CONTINUOUS
 62
    2
 10
468.4261861044547
 20
1599.9999799999998
 40
5
 50
270
 51
0
  0
LINE
  8
_0-0_LAY
  6
CONTINUOUS
 62
    2
 10
416.92618110445551
 20
1594.9999799999998
 11
468.4261861044547
 21
1594.9999799999998
  0
ARC
  8
_0-0_LAY
  6
CONTINUOUS
 62
    2
 10
416.92618110445551
 20
1599.9999799999998
 40
5
 50
180
 51
270
  0
LINE
  8
_0-0_LAY
  6
CONTINUOUS
 62
    2
 10
411.92618110445551
 20
1623.9999799999998
 11
411.92618110445551
 21
1599.9999799999998
  0
LINE
  8
_0-0_LAY
  6
CONTINUOUS
 62
    2
 10
416.92618110445551
 20
1628.9999799999998
 11
468.4261861044547
 21
1628.9999799999998
  0
ARC
  8
_0-0_LAY
  6
CONTINUOUS
 62
    2
 10
416.92618110445551
 20
1623.9999799999998
 40
5
 50
90
 51
180
  0
ARC
  8
_0-0_LAY
  6
CONTINUOUS
 62
    2
 10
393.92618610445538
 20
1623.9999799999998
 40
5
 50
0
 51
90
  0
LINE
  8
_0-0_LAY
  6
CONTINUOUS
 62
    2
 10
398.92618610445538
 20
1599.9999799999998
 11
398.92618610445538
 21
1623.9999799999998
  0
ARC
  8
_0-0_LAY
  6
CONTINUOUS
 62
    2
 10
393.92618610445538
 20
1599.9999799999998
 40
5
 50
270
 51
0
  0
LINE
  8
_0-0_LAY
  6
CONTINUOUS
 62
    2
 10
342.42618110445505
 20
1594.9999799999998
 11
393.92618610445538
 21
1594.9999799999998
  0
ARC
  8
_0-0_LAY
  6
CONTINUOUS
 62
    2
 10
342.42618110445505
 20
1599.9999799999998
 40
5
 50
180
 51
270
  0
LINE
  8
_0-0_LAY
  6
CONTINUOUS
 62
    2
 10
337.42618110445505
 20
1623.9999799999998
 11
337.42618110445505
 21
1599.9999799999998
  0
LINE
  8
_0-0_LAY
  6
CONTINUOUS
 62
    2
 10
342.42618110445505
 20
1628.9999799999998
 11
393.92618610445538
 21
1628.9999799999998
  0
ARC
  8
_0-0_LAY
  6
CONTINUOUS
 62
    2
 10
342.42618110445505
 20
1623.9999799999998
 40
5
 50
90
 51
180
  0
ARC
  8
_0-0_LAY
  6
CONTINUOUS
 62
    2
 10
319.42618610445493
 20
1623.9999799999998
 40
5
 50
0
 51
90
  0
LINE
  8
_0-0_LAY
  6
CONTINUOUS
 62
    2
 10
324.42618610445493
 20
1599.9999799999998
 11
324.42618610445493
 21
1623.9999799999998
  0
ARC
  8
_0-0_LAY
  6
CONTINUOUS
 62
    2
 10
319.42618610445493
 20
1599.9999799999998
 40
5
 50
270
 51
0
  0
LINE
  8
_0-0_LAY
  6
CONTINUOUS
 62
    2
 10
267.9261811044546
 20
1594.9999799999998
 11
319.42618610445493
 21
1594.9999799999998
  0
ARC
  8
_0-0_LAY
  6
CONTINUOUS
 62
    2
 10
267.9261811044546
 20
1599.9999799999998
 40
5
 50
180
 51
270
  0
LINE
  8
_0-0_LAY
  6
CONTINUOUS
 62
    2
 10
262.9261811044546
 20
1623.9999799999998
 11
262.9261811044546
 21
1599.9999799999998
  0
LINE
  8
_0-0_LAY
  6
CONTINUOUS
 62
    2
 10
267.9261811044546
 20
1628.9999799999998
 11
319.42618610445493
 21
1628.9999799999998
  0
ARC
  8
_0-0_LAY
  6
CONTINUOUS
 62
    2
 10
267.9261811044546
 20
1623.9999799999998
 40
5
 50
90
 51
180
  0
LINE
  8
_0-0_LAY
  6
CONTINUOUS
 62
    2
 10
244.92624610445546
 20
1628.9999799999998
 11
215.3821802271716
 21
1628.9999799999998
  0
ARC
  8
_0-0_LAY
  6
CONTINUOUS
 62
    2
 10
244.92624610445546
 20
1623.9999799999998
 40
5
 50
0
 51
90
  0
LINE
  8
_0-0_LAY
  6
CONTINUOUS
 62
    2
 10
249.92624610445546
 20
1600.0000349999998
 11
249.92624610445546
 21
1623.9999799999998
  0
LINE
  8
_0-0_LAY
  6
CONTINUOUS
 62
    2
 10
244.92624610445546
 20
1595.0000349999998
 11
243.38212522717072
 21
1595.0000349999998
  0
ARC
  8
_0-0_LAY
  6
CONTINUOUS
 62
    2
 10
244.92624610445546
 20
1600.0000349999998
 40
5
 50
270
 51
0
  0
LINE
  8
_0-0_LAY
  6
CONTINUOUS
 62
    2
 10
210.92631610445551
 20
1594.828427124746
 11
210.92631610445551
 21
1591.9999999999998
  0
LINE
  8
_0-0_LAY
  6
CONTINUOUS
 62
    2
 10
193.75474322920127
 20
1611.9999999999998
 11
210.92631610445551
 21
1594.828427124746
  0
LINE
  8
_0-0_LAY
  6
CONTINUOUS
 62
    2
 10
190.92631610445551
 20
1611.9999999999998
 11
193.75474322920127
 21
1611.9999999999998
  0
LINE
  8
_0-0_LAY
  6
CONTINUOUS
 62
    2
 10
165.92631610445551
 20
1636.9999999999998
 11
190.92631610445551
 21
1611.9999999999998
  0
LINE
  8
_0-0_LAY
  6
CONTINUOUS
 62
    2
 10
167.92631610445483
 20
1641.9999999999998
 11
165.92631610445551
 21
1639.9999999999998
  0
LINE
  8
_0-0_LAY
  6
CONTINUOUS
 62
    2
 10
210.92631610445551
 20
1591.9999999999998
 11
220.92630110445498
 21
1582.0000149999998
  0
LINE
  8
_0-0_LAY
  6
CONTINUOUS
 62
    2
 10
728.92621610445531
 20
1582.0000149999998
 11
220.92630110445498
 21
1582.0000149999998
  0
LINE
  8
_0-0_LAY
  6
CONTINUOUS
 62
    2
 10
199.55375310242493
 20
1628.9999799999998
 11
215.3821802271716
 21
1628.9999799999998
  0
LINE
  8
_0-0_LAY
  6
CONTINUOUS
 62
    2
 10
227.55369810242519
 20
1595.0000349999998
 11
243.38212522717072
 21
1595.0000349999998
  0
LINE
  8
_0-0_LAY
  6
CONTINUOUS
 62
    2
 10
197.35505641493046
 20
1608.3996868142706
 11
194.93147288455566
 21
1610.8232703446454
  0
ARC
  8
_0-0_LAY
  6
CONTINUOUS
 62
    2
 10
199.55375310242493
 20
1625.9999799999998
 40
3
 50
90
 51
225.00000000000006
  0
LINE
  8
_0-0_LAY
  6
CONTINUOUS
 62
    2
 10
225.43237775886541
 20
1595.87871465644
 11
197.43243275886539
 21
1623.8786596564403
  0
ARC
  8
_0-0_LAY
  6
CONTINUOUS
 62
    2
 10
227.55369810242519
 20
1598.0000349999998
 40
3
 50
225.00000000000006
 51
270
  0
LINE
  8
_0-0_LAY
  6
CONTINUOUS
 62
    2
 10
167.92631610445483
 20
1641.9999999999998
 11
728.92621610445531
 21
1641.9999999999998
  0
LINE
  8
_0-0_LAY
  6
CONTINUOUS
 62
    2
 10
165.92631610445551
 20
1639.9999999999998
 11
165.92631610445551
 21
1636.9999999999998
  0
LINE
  8
_0-0_LAY
  6
CONTINUOUS
 62
    2
 10
679.92621110445498
 20
1582.0000149999998
 11
689.68898671855789
 21
1582.0000149999998
  0
LINE
  8
_0-0_LAY
  6
CONTINUOUS
 62
    2
 10
679.92621110445498
 20
1594.9999799999998
 11
689.68898671855789
 21
1594.9999799999998
  0
LINE
  8
_0-0_LAY
  6
CONTINUOUS
 62
    2
 10
679.92621110445498
 20
1628.9999799999998
 11
689.68898671855789
 21
1628.9999799999998
  0
LINE
  8
_0-0_LAY
  6
CONTINUOUS
 62
    2
 10
679.92621110445498
 20
1641.9999999999998
 11
689.68898671855789
 21
1641.9999999999998
  0
POINT
  8
_0-9_ADD_LINE
 62
    7
 10
123.87097110445552
 20
1667.0552799999998
  0
POINT
  8
_0-9_ADD_LINE
 62
    7
 10
129.17423610445553
 20
1672.3585599999999
  0
LINE
  8
_0-9_ADD_LINE
  6
CONTINUOUS
 62
    7
 10
129.174221104455
 20
1672.3585599999999
 11
150.38746110445572
 21
1651.1453650000005
  0
LINE
  8
_0-9_ADD_LINE
  6
CONTINUOUS
 62
    7
 10
129.17423610445553
 20
1672.3585599999999
 11
123.87097110445552
 21
1667.0552799999998
  0
LINE
  8
_0-9_ADD_LINE
  6
CONTINUOUS
 62
    7
 10
165.92631610445551
 20
1701.9999999999998
 11
165.92631610445551
 21
1671.9999999999998
  0
LINE
  8
_0-9_ADD_LINE
  6
CONTINUOUS
 62
    7
 10
249.92631610445551
 20
1701.9999999999998
 11
249.92631610445551
 21
1671.9999999999998
  0
LINE
  8
_0-9_ADD_LINE
  6
CONTINUOUS
 62
    7
 10
262.92631610445551
 20
1701.9999999999998
 11
262.92631610445551
 21
1671.9999999999998
  0
LINE
  8
_0-9_ADD_LINE
  6
CONTINUOUS
 62
    7
 10
324.42631610445551
 20
1701.9999999999998
 11
324.42631610445551
 21
1671.9999999999998
  0
LINE
  8
_0-9_ADD_LINE
  6
CONTINUOUS
 62
    7
 10
337.42631610445551
 20
1701.9999999999998
 11
337.42631610445551
 21
1671.9999999999998
  0
LINE
  8
_0-9_ADD_LINE
  6
CONTINUOUS
 62
    7
 10
398.92631610445551
 20
1701.9999999999998
 11
398.92631610445551
 21
1671.9999999999998
  0
LINE
  8
_0-9_ADD_LINE
  6
CONTINUOUS
 62
    7
 10
411.92631610445551
 20
1701.9999999999998
 11
411.92631610445551
 21
1671.9999999999998
  0
LINE
  8
_0-9_ADD_LINE
  6
CONTINUOUS
 62
    7
 10
473.42631610445551
 20
1701.9999999999998
 11
473.42631610445551
 21
1671.9999999999998
  0
LINE
  8
_0-9_ADD_LINE
  6
CONTINUOUS
 62
    7
 10
486.42631610445551
 20
1701.9999999999998
 11
486.42631610445551
 21
1671.9999999999998
  0
LINE
  8
_0-9_ADD_LINE
  6
CONTINUOUS
 62
    7
 10
547.92631610445551
 20
1701.9999999999998
 11
547.92631610445551
 21
1671.9999999999998
  0
LINE
  8
_0-9_ADD_LINE
  6
CONTINUOUS
 62
    7
 10
560.92631610445551
 20
1701.9999999999998
 11
560.92631610445551
 21
1671.9999999999998
  0
LINE
  8
_0-9_ADD_LINE
  6
CONTINUOUS
 62
    7
 10
622.42631610445551
 20
1701.9999999999998
 11
622.42631610445551
 21
1671.9999999999998
  0
LINE
  8
_0-9_ADD_LINE
  6
CONTINUOUS
 62
    7
 10
635.42631610445551
 20
1701.9999999999998
 11
635.42631610445551
 21
1671.9999999999998
  0
LINE
  8
_0-9_ADD_LINE
  6
CONTINUOUS
 62
    7
 10
697.92631610445551
 20
1701.9999999999998
 11
697.92631610445551
 21
1671.9999999999998
  0
LINE
  8
_0-9_ADD_LINE
  6
CONTINUOUS
 62
    7
 10
710.92631610445551
 20
1701.9999999999998
 11
710.92631610445551
 21
1671.9999999999998
  0
LINE
  8
_0-9_ADD_LINE
  6
CONTINUOUS
 62
    7
 10
730.92631610445551
 20
1701.9999999999998
 11
730.92631610445551
 21
1671.9999999999998
  0
LINE
  8
_0-9_ADD_LINE
  6
CONTINUOUS
 62
    7
 10
165.92631610445551
 20
1701.9999999999998
 11
249.92631610445551
 21
1701.9999999999998
  0
POINT
  8
_0-9_ADD_LINE
 62
    7
 10
165.92631610445551
 20
1701.9999999999998
  0
POINT
  8
_0-9_ADD_LINE
 62
    7
 10
249.92631610445551
 20
1701.9999999999998
  0
LINE
  8
_0-9_ADD_LINE
  6
CONTINUOUS
 62
    7
 10
165.92631610445551
 20
1701.9999999999998
 11
165.92631610445551
 21
1683.083801115903
  0
LINE
  8
_0-9_ADD_LINE
  6
CONTINUOUS
 62
    7
 10
249.92631610445551
 20
1701.9999999999998
 11
249.92631610445551
 21
1683.083801115903
  0
LINE
  8
_0-9_ADD_LINE
  6
CONTINUOUS
 62
    7
 10
249.92631610445551
 20
1701.9999999999998
 11
262.92631610445551
 21
1701.9999999999998
  0
POINT
  8
_0-9_ADD_LINE
 62
    7
 10
262.92631610445551
 20
1701.9999999999998
  0
LINE
  8
_0-9_ADD_LINE
  6
CONTINUOUS
 62
    7
 10
262.92631610445551
 20
1701.9999999999998
 11
262.92631610445551
 21
1683.083801115903
  0
TEXT
  8
_0-9_ADD_LINE
 62
    7
 10
248.42631610445551
 20
1705.9999999999998
 40
16
 41
1
 50
0
  1
13
  0
LINE
  8
_0-9_ADD_LINE
  6
CONTINUOUS
 62
    7
 10
262.92631610445551
 20
1701.9999999999998
 11
324.42631610445551
 21
1701.9999999999998
  0
POINT
  8
_0-9_ADD_LINE
 62
    7
 10
324.42631610445551
 20
1701.9999999999998
  0
LINE
  8
_0-9_ADD_LINE
  6
CONTINUOUS
 62
    7
 10
324.42631610445551
 20
1701.9999999999998
 11
324.42631610445551
 21
1683.083801115903
  0
TEXT
  8
_0-9_ADD_LINE
 62
    7
 10
277.67631610445551
 20
1705.9999999999998
 40
16
 41
1
 50
0
  1
61.5
  0
LINE
  8
_0-9_ADD_LINE
  6
CONTINUOUS
 62
    7
 10
324.42631610445551
 20
1701.9999999999998
 11
337.42631610445551
 21
1701.9999999999998
  0
POINT
  8
_0-9_ADD_LINE
 62
    7
 10
337.42631610445551
 20
1701.9999999999998
  0
LINE
  8
_0-9_ADD_LINE
  6
CONTINUOUS
 62
    7
 10
337.42631610445551
 20
1701.9999999999998
 11
337.42631610445551
 21
1683.083801115903
  0
TEXT
  8
_0-9_ADD_LINE
 62
    7
 10
322.92631610445551
 20
1705.9999999999998
 40
16
 41
1
 50
0
  1
13
  0
LINE
  8
_0-9_ADD_LINE
  6
CONTINUOUS
 62
    7
 10
337.42631610445551
 20
1701.9999999999998
 11
398.92631610445551
 21
1701.9999999999998
  0
POINT
  8
_0-9_ADD_LINE
 62
    7
 10
398.92631610445551
 20
1701.9999999999998
  0
LINE
  8
_0-9_ADD_LINE
  6
CONTINUOUS
 62
    7
 10
398.92631610445551
 20
1701.9999999999998
 11
398.92631610445551
 21
1683.083801115903
  0
TEXT
  8
_0-9_ADD_LINE
 62
    7
 10
352.17631610445551
 20
1705.9999999999998
 40
16
 41
1
 50
0
  1
61.5
  0
LINE
  8
_0-9_ADD_LINE
  6
CONTINUOUS
 62
    7
 10
398.92631610445551
 20
1701.9999999999998
 11
411.92631610445551
 21
1701.9999999999998
  0
POINT
  8
_0-9_ADD_LINE
 62
    7
 10
411.92631610445551
 20
1701.9999999999998
  0
LINE
  8
_0-9_ADD_LINE
  6
CONTINUOUS
 62
    7
 10
411.92631610445551
 20
1701.9999999999998
 11
411.92631610445551
 21
1683.083801115903
  0
TEXT
  8
_0-9_ADD_LINE
 62
    7
 10
397.42631610445551
 20
1705.9999999999998
 40
16
 41
1
 50
0
  1
13
  0
LINE
  8
_0-9_ADD_LINE
  6
CONTINUOUS
 62
    7
 10
411.92631610445551
 20
1701.9999999999998
 11
473.42631610445551
 21
1701.9999999999998
  0
POINT
  8
_0-9_ADD_LINE
 62
    7
 10
473.42631610445551
 20
1701.9999999999998
  0
LINE
  8
_0-9_ADD_LINE
  6
CONTINUOUS
 62
    7
 10
473.42631610445551
 20
1701.9999999999998
 11
473.42631610445551
 21
1683.083801115903
  0
TEXT
  8
_0-9_ADD_LINE
 62
    7
 10
426.67631610445551
 20
1705.9999999999998
 40
16
 41
1
 50
0
  1
61.5
  0
LINE
  8
_0-9_ADD_LINE
  6
CONTINUOUS
 62
    7
 10
473.42631610445551
 20
1701.9999999999998
 11
486.42631610445551
 21
1701.9999999999998
  0
POINT
  8
_0-9_ADD_LINE
 62
    7
 10
486.42631610445551
 20
1701.9999999999998
  0
LINE
  8
_0-9_ADD_LINE
  6
CONTINUOUS
 62
    7
 10
486.42631610445551
 20
1701.9999999999998
 11
486.42631610445551
 21
1683.083801115903
  0
TEXT
  8
_0-9_ADD_LINE
 62
    7
 10
471.92631610445551
 20
1705.9999999999998
 40
16
 41
1
 50
0
  1
13
  0
LINE
  8
_0-9_ADD_LINE
  6
CONTINUOUS
 62
    7
 10
486.42631610445551
 20
1701.9999999999998
 11
547.92631610445551
 21
1701.9999999999998
  0
POINT
  8
_0-9_ADD_LINE
 62
    7
 10
547.92631610445551
 20
1701.9999999999998
  0
LINE
  8
_0-9_ADD_LINE
  6
CONTINUOUS
 62
    7
 10
547.92631610445551
 20
1701.9999999999998
 11
547.92631610445551
 21
1683.083801115903
  0
TEXT
  8
_0-9_ADD_LINE
 62
    7
 10
501.17631610445551
 20
1705.9999999999998
 40
16
 41
1
 50
0
  1
61.5
  0
LINE
  8
_0-9_ADD_LINE
  6
CONTINUOUS
 62
    7
 10
547.92631610445551
 20
1701.9999999999998
 11
560.92631610445551
 21
1701.9999999999998
  0
POINT
  8
_0-9_ADD_LINE
 62
    7
 10
560.92631610445551
 20
1701.9999999999998
  0
LINE
  8
_0-9_ADD_LINE
  6
CONTINUOUS
 62
    7
 10
560.92631610445551
 20
1701.9999999999998
 11
560.92631610445551
 21
1683.083801115903
  0
TEXT
  8
_0-9_ADD_LINE
 62
    7
 10
546.42631610445551
 20
1705.9999999999998
 40
16
 41
1
 50
0
  1
13
  0
LINE
  8
_0-9_ADD_LINE
  6
CONTINUOUS
 62
    7
 10
560.92631610445551
 20
1701.9999999999998
 11
622.42631610445551
 21
1701.9999999999998
  0
POINT
  8
_0-9_ADD_LINE
 62
    7
 10
622.42631610445551
 20
1701.9999999999998
  0
LINE
  8
_0-9_ADD_LINE
  6
CONTINUOUS
 62
    7
 10
622.42631610445551
 20
1701.9999999999998
 11
622.42631610445551
 21
1683.083801115903
  0
TEXT
  8
_0-9_ADD_LINE
 62
    7
 10
575.67631610445551
 20
1705.9999999999998
 40
16
 41
1
 50
0
  1
61.5
  0
LINE
  8
_0-9_ADD_LINE
  6
CONTINUOUS
 62
    7
 10
622.42631610445551
 20
1701.9999999999998
 11
635.42631610445551
 21
1701.9999999999998
  0
POINT
  8
_0-9_ADD_LINE
 62
    7
 10
635.42631610445551
 20
1701.9999999999998
  0
LINE
  8
_0-9_ADD_LINE
  6
CONTINUOUS
 62
    7
 10
635.42631610445551
 20
1701.9999999999998
 11
635.42631610445551
 21
1683.083801115903
  0
TEXT
  8
_0-9_ADD_LINE
 62
    7
 10
620.92631610445551
 20
1705.9999999999998
 40
16
 41
1
 50
0
  1
13
  0
LINE
  8
_0-9_ADD_LINE
  6
CONTINUOUS
 62
    7
 10
635.42631610445551
 20
1701.9999999999998
 11
697.92631610445551
 21
1701.9999999999998
  0
POINT
  8
_0-9_ADD_LINE
 62
    7
 10
697.92631610445551
 20
1701.9999999999998
  0
LINE
  8
_0-9_ADD_LINE
  6
CONTINUOUS
 62
    7
 10
697.92631610445551
 20
1701.9999999999998
 11
697.92631610445551
 21
1683.083801115903
  0
TEXT
  8
_0-9_ADD_LINE
 62
    7
 10
650.67631610445551
 20
1705.9999999999998
 40
16
 41
1
 50
0
  1
62.5
  0
LINE
  8
_0-9_ADD_LINE
  6
CONTINUOUS
 62
    7
 10
697.92631610445551
 20
1701.9999999999998
 11
710.92631610445551
 21
1701.9999999999998
  0
POINT
  8
_0-9_ADD_LINE
 62
    7
 10
710.92631610445551
 20
1701.9999999999998
  0
LINE
  8
_0-9_ADD_LINE
  6
CONTINUOUS
 62
    7
 10
710.92631610445551
 20
1701.9999999999998
 11
710.92631610445551
 21
1683.083801115903
  0
TEXT
  8
_0-9_ADD_LINE
 62
    7
 10
696.42631610445551
 20
1705.9999999999998
 40
16
 41
1
 50
0
  1
13
  0
LINE
  8
_0-9_ADD_LINE
  6
CONTINUOUS
 62
    7
 10
710.92631610445551
 20
1701.9999999999998
 11
730.92631610445551
 21
1701.9999999999998
  0
POINT
  8
_0-9_ADD_LINE
 62
    7
 10
730.92631610445551
 20
1701.9999999999998
  0
LINE
  8
_0-9_ADD_LINE
  6
CONTINUOUS
 62
    7
 10
730.92631610445551
 20
1701.9999999999998
 11
730.92631610445551
 21
1683.083801115903
  0
TEXT
  8
_0-9_ADD_LINE
 62
    7
 10
712.92631610445551
 20
1705.9999999999998
 40
16
 41
1
 50
0
  1
20
  0
LINE
  8
_0-9_ADD_LINE
  6
CONTINUOUS
 62
    7
 10
123.87097110445552
 20
1667.0552799999998
 11
145.08419610445458
 21
1645.8420849999995
  0
LINE
  8
_0-9_ADD_LINE
  6
CENTER1
 62
    7
 10
148.92626610445518
 20
1641.9999999999998
 11
148.92626610445518
 21
1632.8249949999997
  0
LINE
  8
_0-9_ADD_LINE
  6
CENTER1
 62
    7
 10
159.3086211044556
 20
1641.9999999999998
 11
148.92626610445518
 21
1641.9999999999998
  0
LINE
  8
_0-9_ADD_LINE
  6
CENTER1
 62
    7
 10
148.92626610445518
 20
1641.9999999999998
 11
208.92623127724505
 21
1582.0000149999998
  0
LINE
  8
_0-9_ADD_LINE
  6
CONTINUOUS
 62
    7
 10
184.88115947688721
 20
1618.0451566275681
 11
179.68502447688616
 21
1615.045141627568
  0
LINE
  8
_0-9_ADD_LINE
  6
CONTINUOUS
 62
    7
 10
184.88115947688721
 20
1618.0451566275681
 11
181.88117447688592
 21
1612.8489916275682
  0
ARC
  8
_0-9_ADD_LINE
  6
CONTINUOUS
 62
    7
 10
219.53288610445497
 20
1581.9999399999999
 40
49.999997999999991
 50
133.87080325204042
 51
179.99989999998991
  0
LINE
  8
_0-9_ADD_LINE
  6
CENTER1
 62
    7
 10
208.92623127724505
 20
1582.0000149999998
 11
148.92626610445518
 21
1582.0000149999998
  0
TEXT
  8
_0-9_ADD_LINE
 62
    7
 10
675.92621110445498
 20
1627.4999899999998
 40
16
 41
1
 50
90
  1
13
  0
TEXT
  8
_0-9_ADD_LINE
 62
    7
 10
675.92621110445498
 20
1603.9999799999998
 40
16
 41
1
 50
90
  1
34
  0
TEXT
  8
_0-9_ADD_LINE
 62
    7
 10
675.92621110445498
 20
1580.4999974999998
 40
16
 41
1
 50
90
  1
13
  0
POINT
  8
_0-9_ADD_LINE
 62
    7
 10
679.92621110445498
 20
1641.9999999999998
  0
LINE
  8
_0-9_ADD_LINE
  6
CONTINUOUS
 62
    7
 10
679.92621110445498
 20
1628.9999799999998
 11
679.92621110445498
 21
1641.9999999999998
  0
POINT
  8
_0-9_ADD_LINE
 62
    7
 10
679.92621110445498
 20
1628.9999799999998
  0
LINE
  8
_0-9_ADD_LINE
  6
CONTINUOUS
 62
    7
 10
679.92621110445498
 20
1594.9999799999998
 11
679.92621110445498
 21
1628.9999799999998
  0
POINT
  8
_0-9_ADD_LINE
 62
    7
 10
679.92621110445498
 20
1594.9999799999998
  0
LINE
  8
_0-9_ADD_LINE
  6
CONTINUOUS
 62
    7
 10
679.92621110445498
 20
1582.0000149999998
 11
679.92621110445498
 21
1594.9999799999998
  0
POINT
  8
_0-9_ADD_LINE
 62
    7
 10
679.92621110445498
 20
1582.0000149999998
  0
LINE
  8
_0-9_ADD_LINE
  6
CONTINUOUS
 62
    7
 10
790.9262161044544
 20
1642.0000149999998
 11
760.92621610445531
 21
1642.0000149999998
  0
LINE
  8
_0-9_ADD_LINE
  6
CONTINUOUS
 62
    7
 10
790.9262161044544
 20
1582.0000149999998
 11
760.92621610445531
 21
1582.0000149999998
  0
TEXT
  8
_0-9_ADD_LINE
 62
    7
 10
786.9262161044544
 20
1604.0000149999998
 40
16
 41
1
 50
90
  1
60
  0
POINT
  8
_0-9_ADD_LINE
 62
    7
 10
790.9262161044544
 20
1642.0000149999998
  0
LINE
  8
_0-9_ADD_LINE
  6
CONTINUOUS
 62
    7
 10
790.9262161044544
 20
1642.0000149999998
 11
790.9262161044544
 21
1582.0000149999998
  0
POINT
  8
_0-9_ADD_LINE
 62
    7
 10
790.9262161044544
 20
1582.0000149999998
  0
LINE
  8
_0-9_ADD_LINE
  6
CONTINUOUS
 62
    7
 10
150.32629627724418
 20
1481.9999999999998
 11
150.32629627724418
 21
1551.9999999999998
  0
LINE
  8
_0-9_ADD_LINE
  6
CONTINUOUS
 62
    7
 10
165.32629627724418
 20
1521.9999999999998
 11
210.92631610445596
 21
1521.9999999999998
  0
LINE
  8
_0-9_ADD_LINE
  6
CONTINUOUS
 62
    7
 10
165.32629627724418
 20
1501.9999999999998
 11
165.32629627724418
 21
1551.9999999999998
  0
LINE
  8
_0-9_ADD_LINE
  6
CONTINUOUS
 62
    7
 10
210.92630110445543
 20
1521.9999999999998
 11
210.92630110445543
 21
1551.9999999999998
  0
TEXT
  8
_0-9_ADD_LINE
 62
    7
 10
179.98185355106489
 20
1523.4696099999999
 40
16
 41
1
 50
0
  1
45
  0
POINT
  8
_0-9_ADD_LINE
 62
    7
 10
210.92631610445596
 20
1521.9999999999998
  0
POINT
  8
_0-9_ADD_LINE
 62
    7
 10
165.92631610445596
 20
1521.9999999999998
  0
LINE
  8
_0-9_ADD_LINE
  6
CONTINUOUS
 62
    7
 10
730.32629627724418
 20
1481.9999999999998
 11
730.32629627724418
 21
1551.9999999999998
  0
LINE
  8
_0-9_ADD_LINE
  6
CONTINUOUS
 62
    7
 10
150.32629627724418
 20
1501.9999999999998
 11
165.32629627724418
 21
1501.9999999999998
  0
POINT
  8
_0-9_ADD_LINE
 62
    7
 10
150.32629627724418
 20
1501.9999999999998
  0
POINT
  8
_0-9_ADD_LINE
 62
    7
 10
165.32629627724418
 20
1501.9999999999998
  0
LINE
  8
_0-9_ADD_LINE
  6
CONTINUOUS
 62
    7
 10
150.32629627724418
 20
1501.9999999999998
 11
150.32629627724418
 21
1481.6018411197313
  0
TEXT
  8
_0-9_ADD_LINE
 62
    7
 10
149.82629627724418
 20
1505.9999999999998
 40
16
 41
1
 50
0
  1
15
  0
LINE
  8
_0-9_ADD_LINE
  6
CONTINUOUS
 62
    7
 10
165.32629627724418
 20
1501.9999999999998
 11
150.32629627724418
 21
1501.9999999999998
  0
TEXT
  8
_0-9_ADD_LINE
 62
    7
 10
149.82629627724418
 20
1505.9999999999998
 40
16
 41
1
 50
0
  1
15
  0
LINE
  8
_0-9_ADD_LINE
  6
CONTINUOUS
 62
    7
 10
165.32629627724418
 20
1501.9999999999998
 11
730.32629627724418
 21
1501.9999999999998
  0
POINT
  8
_0-9_ADD_LINE
 62
    7
 10
165.32629627724418
 20
1501.9999999999998
  0
POINT
  8
_0-9_ADD_LINE
 62
    7
 10
730.32629627724418
 20
1501.9999999999998
  0
LINE
  8
_0-9_ADD_LINE
  6
CONTINUOUS
 62
    7
 10
730.32629627724418
 20
1501.9999999999998
 11
730.32629627724418
 21
1486.5463334156448
  0
TEXT
  8
_0-9_ADD_LINE
 62
    7
 10
435.82629627724418
 20
1505.9999999999998
 40
16
 41
1
 50
0
  1
565
  0
LINE
  8
_0-9_ADD_LINE
  6
CONTINUOUS
 62
    7
 10
150.32629627724418
 20
1481.9999999999998
 11
730.32629627724418
 21
1481.9999999999998
  0
POINT
  8
_0-9_ADD_LINE
 62
    7
 10
150.32629627724418
 20
1481.9999999999998
  0
POINT
  8
_0-9_ADD_LINE
 62
    7
 10
730.32629627724418
 20
1481.9999999999998
  0
TEXT
  8
_0-9_ADD_LINE
 62
    7
 10
428.32629627724418
 20
1483.9999999999998
 40
16
 41
1
 50
0
  1
580
  0
LINE
  8
_0-9_ADD_LINE
  6
CONTINUOUS
 62
    7
 10
790.9262161044544
 20
1642.0000149999998
 11
781.91599408768525
 21
1642.0000149999998
  0
LINE
  8
_0-9_ADD_LINE
  6
CONTINUOUS
 62
    7
 10
790.9262161044544
 20
1582.0000149999998
 11
781.91599408768525
 21
1582.0000149999998
  0
LINE
  8
_0-0_LAY
  6
CONTINUOUS
 62
    2
 10
225.92161753876803
 20
1163.8284271247451
 11
225.92161753876803
 21
1160.9999999999991
  0
ARC
  8
_0-0_LAY
  6
CONTINUOUS
 62
    2
 10
245.3774266614837
 20
1167.0000349999989
 40
3
 50
225.00000000000006
 51
270
  0
LINE
  8
_0-0_LAY
  6
CONTINUOUS
 62
    2
 10
225.92161753876803
 20
1160.9999999999991
 11
235.92160253876796
 21
1151.0000149999989
  0
LINE
  8
_0-0_LAY
  6
CONTINUOUS
 62
    2
 10
725.92153253876791
 20
1168.0000249999987
 11
725.92153253876791
 21
1193.9999899999987
  0
LINE
  8
_0-0_LAY
  6
CONTINUOUS
 62
    2
 10
742.92146753876762
 20
1196.9999899999987
 11
728.92153253876791
 21
1196.9999899999987
  0
LINE
  8
_0-0_LAY
  6
CONTINUOUS
 62
    2
 10
742.92146753876762
 20
1165.0000099999991
 11
728.92153253876791
 21
1165.0000099999991
  0
LINE
  8
_0-0_LAY
  6
CONTINUOUS
 62
    2
 10
745.92161753876792
 20
1153.0000549999991
 11
745.92161753876792
 21
1162.0000099999991
  0
LINE
  8
_0-0_LAY
  6
CONTINUOUS
 62
    2
 10
745.92161753876792
 20
1153.0000549999991
 11
743.92151753876794
 21
1151.0000149999989
  0
ARC
  8
_0-0_LAY
  6
CONTINUOUS
 62
    2
 10
728.92153253876791
 20
1193.9999899999987
 40
3
 50
90
 51
180
  0
ARC
  8
_0-0_LAY
  6
CONTINUOUS
 62
    2
 10
728.92153253876791
 20
1168.0000249999987
 40
3
 50
180
 51
270
  0
ARC
  8
_0-0_LAY
  6
CONTINUOUS
 62
    2
 10
742.92146753876762
 20
1200.0000049999987
 40
3
 50
270
 51
0
  0
ARC
  8
_0-0_LAY
  6
CONTINUOUS
 62
    2
 10
742.92146753876762
 20
1162.0000099999991
 40
3
 50
0
 51
90
  0
LINE
  8
_0-0_LAY
  6
CONTINUOUS
 62
    2
 10
743.92151753876794
 20
1151.0000149999989
 11
235.92160253876796
 21
1151.0000149999989
  0
LINE
  8
_0-0_LAY
  6
CONTINUOUS
 62
    2
 10
745.92161753876792
 20
1223.9999599999985
 11
745.92161753876792
 21
1200.0000049999987
  0
LINE
  8
_0-0_LAY
  6
CONTINUOUS
 62
    2
 10
743.92151753876794
 20
1225.9999999999989
 11
745.92161753876792
 21
1223.9999599999985
  0
ARC
  8
_0-0_LAY
  6
CONTINUOUS
 62
    2
 10
526.92153253876791
 20
1192.9999799999989
 40
5
 50
90
 51
180
  0
LINE
  8
_0-0_LAY
  6
CONTINUOUS
 62
    2
 10
521.92153253876791
 20
1169.0000349999989
 11
521.92153253876791
 21
1192.9999799999989
  0
ARC
  8
_0-0_LAY
  6
CONTINUOUS
 62
    2
 10
526.92153253876791
 20
1169.0000349999989
 40
5
 50
180
 51
270
  0
LINE
  8
_0-0_LAY
  6
CONTINUOUS
 62
    2
 10
571.92153753876778
 20
1164.0000349999989
 11
526.92153253876791
 21
1164.0000349999989
  0
ARC
  8
_0-0_LAY
  6
CONTINUOUS
 62
    2
 10
571.92153753876778
 20
1169.0000349999989
 40
5
 50
270
 51
0
  0
LINE
  8
_0-0_LAY
  6
CONTINUOUS
 62
    2
 10
576.92153753876778
 20
1192.9999799999989
 11
576.92153753876778
 21
1169.0000349999989
  0
LINE
  8
_0-0_LAY
  6
CONTINUOUS
 62
    2
 10
571.92153753876778
 20
1197.9999799999989
 11
526.92153253876791
 21
1197.9999799999989
  0
ARC
  8
_0-0_LAY
  6
CONTINUOUS
 62
    2
 10
571.92153753876778
 20
1192.9999799999989
 40
5
 50
0
 51
90
  0
ARC
  8
_0-0_LAY
  6
CONTINUOUS
 62
    2
 10
594.9214825387678
 20
1192.9999799999989
 40
5
 50
90
 51
180
  0
LINE
  8
_0-0_LAY
  6
CONTINUOUS
 62
    2
 10
639.92148753876791
 20
1197.9999799999989
 11
594.9214825387678
 21
1197.9999799999989
  0
ARC
  8
_0-0_LAY
  6
CONTINUOUS
 62
    2
 10
639.92148753876791
 20
1192.9999799999989
 40
5
 50
0
 51
90
  0
LINE
  8
_0-0_LAY
  6
CONTINUOUS
 62
    2
 10
644.92148753876768
 20
1169.0000349999989
 11
644.92148753876768
 21
1192.9999799999989
  0
ARC
  8
_0-0_LAY
  6
CONTINUOUS
 62
    2
 10
639.92148753876791
 20
1169.0000349999989
 40
5
 50
270
 51
0
  0
LINE
  8
_0-0_LAY
  6
CONTINUOUS
 62
    2
 10
594.9214825387678
 20
1164.0000349999989
 11
639.92148753876791
 21
1164.0000349999989
  0
LINE
  8
_0-0_LAY
  6
CONTINUOUS
 62
    2
 10
589.92148253876803
 20
1169.0000349999989
 11
589.92148253876803
 21
1192.9999799999989
  0
ARC
  8
_0-0_LAY
  6
CONTINUOUS
 62
    2
 10
594.9214825387678
 20
1169.0000349999989
 40
5
 50
180
 51
270
  0
ARC
  8
_0-0_LAY
  6
CONTINUOUS
 62
    2
 10
662.92150753876808
 20
1192.9999799999989
 40
5
 50
90
 51
180
  0
LINE
  8
_0-0_LAY
  6
CONTINUOUS
 62
    2
 10
707.92151253876796
 20
1197.9999799999989
 11
662.92150753876808
 21
1197.9999799999989
  0
ARC
  8
_0-0_LAY
  6
CONTINUOUS
 62
    2
 10
707.92151253876796
 20
1192.9999799999989
 40
5
 50
0
 51
90
  0
LINE
  8
_0-0_LAY
  6
CONTINUOUS
 62
    2
 10
712.92151253876796
 20
1169.0000349999989
 11
712.92151253876796
 21
1192.9999799999989
  0
ARC
  8
_0-0_LAY
  6
CONTINUOUS
 62
    2
 10
707.92151253876796
 20
1169.0000349999989
 40
5
 50
270
 51
0
  0
LINE
  8
_0-0_LAY
  6
CONTINUOUS
 62
    2
 10
662.92150753876808
 20
1164.0000349999989
 11
707.92151253876796
 21
1164.0000349999989
  0
LINE
  8
_0-0_LAY
  6
CONTINUOUS
 62
    2
 10
657.92150753876808
 20
1169.0000349999989
 11
657.92150753876808
 21
1192.9999799999989
  0
ARC
  8
_0-0_LAY
  6
CONTINUOUS
 62
    2
 10
662.92150753876808
 20
1169.0000349999989
 40
5
 50
180
 51
270
  0
ARC
  8
_0-0_LAY
  6
CONTINUOUS
 62
    2
 10
503.92151253876796
 20
1192.9999799999989
 40
5
 50
0
 51
90
  0
LINE
  8
_0-0_LAY
  6
CONTINUOUS
 62
    2
 10
466.42150753876808
 20
1197.9999799999989
 11
503.92151253876796
 21
1197.9999799999989
  0
ARC
  8
_0-0_LAY
  6
CONTINUOUS
 62
    2
 10
466.42150753876808
 20
1192.9999799999989
 40
5
 50
90
 51
180
  0
LINE
  8
_0-0_LAY
  6
CONTINUOUS
 62
    2
 10
461.42150753876808
 20
1169.0000349999989
 11
461.42150753876808
 21
1192.9999799999989
  0
ARC
  8
_0-0_LAY
  6
CONTINUOUS
 62
    2
 10
466.42150753876808
 20
1169.0000349999989
 40
5
 50
180
 51
270
  0
LINE
  8
_0-0_LAY
  6
CONTINUOUS
 62
    2
 10
503.92151253876796
 20
1164.0000349999989
 11
466.42150753876808
 21
1164.0000349999989
  0
LINE
  8
_0-0_LAY
  6
CONTINUOUS
 62
    2
 10
508.92151253876796
 20
1169.0000349999989
 11
508.92151253876796
 21
1192.9999799999989
  0
ARC
  8
_0-0_LAY
  6
CONTINUOUS
 62
    2
 10
503.92151253876796
 20
1169.0000349999989
 40
5
 50
270
 51
0
  0
ARC
  8
_0-0_LAY
  6
CONTINUOUS
 62
    2
 10
443.4215625387676
 20
1192.9999799999989
 40
5
 50
0
 51
90
  0
LINE
  8
_0-0_LAY
  6
CONTINUOUS
 62
    2
 10
448.4215625387676
 20
1169.0000349999989
 11
448.4215625387676
 21
1192.9999799999989
  0
ARC
  8
_0-0_LAY
  6
CONTINUOUS
 62
    2
 10
443.4215625387676
 20
1169.0000349999989
 40
5
 50
270
 51
0
  0
LINE
  8
_0-0_LAY
  6
CONTINUOUS
 62
    2
 10
405.92154253876811
 20
1164.0000349999989
 11
443.4215625387676
 21
1164.0000349999989
  0
ARC
  8
_0-0_LAY
  6
CONTINUOUS
 62
    2
 10
405.92154253876811
 20
1169.0000349999989
 40
5
 50
180
 51
270
  0
LINE
  8
_0-0_LAY
  6
CONTINUOUS
 62
    2
 10
400.92154253876811
 20
1192.9999799999989
 11
400.92154253876811
 21
1169.0000349999989
  0
LINE
  8
_0-0_LAY
  6
CONTINUOUS
 62
    2
 10
405.92154253876811
 20
1197.9999799999989
 11
443.4215625387676
 21
1197.9999799999989
  0
ARC
  8
_0-0_LAY
  6
CONTINUOUS
 62
    2
 10
405.92154253876811
 20
1192.9999799999989
 40
5
 50
90
 51
180
  0
ARC
  8
_0-0_LAY
  6
CONTINUOUS
 62
    2
 10
382.92153753876778
 20
1192.9999799999989
 40
5
 50
0
 51
90
  0
LINE
  8
_0-0_LAY
  6
CONTINUOUS
 62
    2
 10
337.92151753876806
 20
1197.9999799999989
 11
382.92153753876778
 21
1197.9999799999989
  0
ARC
  8
_0-0_LAY
  6
CONTINUOUS
 62
    2
 10
337.92151753876806
 20
1192.9999799999989
 40
5
 50
90
 51
180
  0
LINE
  8
_0-0_LAY
  6
CONTINUOUS
 62
    2
 10
332.92151753876806
 20
1169.0000349999989
 11
332.92151753876806
 21
1192.9999799999989
  0
ARC
  8
_0-0_LAY
  6
CONTINUOUS
 62
    2
 10
337.92151753876806
 20
1169.0000349999989
 40
5
 50
180
 51
270
  0
LINE
  8
_0-0_LAY
  6
CONTINUOUS
 62
    2
 10
382.92153753876778
 20
1164.0000349999989
 11
337.92151753876806
 21
1164.0000349999989
  0
LINE
  8
_0-0_LAY
  6
CONTINUOUS
 62
    2
 10
387.92153753876778
 20
1169.0000349999989
 11
387.92153753876778
 21
1192.9999799999989
  0
ARC
  8
_0-0_LAY
  6
CONTINUOUS
 62
    2
 10
382.92153753876778
 20
1169.0000349999989
 40
5
 50
270
 51
0
  0
ARC
  8
_0-0_LAY
  6
CONTINUOUS
 62
    2
 10
314.9215725387678
 20
1192.9999799999989
 40
5
 50
0
 51
90
  0
LINE
  8
_0-0_LAY
  6
CONTINUOUS
 62
    2
 10
269.92153753876801
 20
1197.9999799999989
 11
314.9215725387678
 21
1197.9999799999989
  0
ARC
  8
_0-0_LAY
  6
CONTINUOUS
 62
    2
 10
269.92153753876801
 20
1192.9999799999989
 40
5
 50
90
 51
180
  0
LINE
  8
_0-0_LAY
  6
CONTINUOUS
 62
    2
 10
264.92153753876778
 20
1169.0000349999989
 11
264.92153753876778
 21
1192.9999799999989
  0
ARC
  8
_0-0_LAY
  6
CONTINUOUS
 62
    2
 10
269.92153753876801
 20
1169.0000349999989
 40
5
 50
180
 51
270
  0
LINE
  8
_0-0_LAY
  6
CONTINUOUS
 62
    2
 10
314.9215725387678
 20
1164.0000349999989
 11
269.92153753876801
 21
1164.0000349999989
  0
LINE
  8
_0-0_LAY
  6
CONTINUOUS
 62
    2
 10
319.9215725387678
 20
1169.0000349999989
 11
319.9215725387678
 21
1192.9999799999989
  0
ARC
  8
_0-0_LAY
  6
CONTINUOUS
 62
    2
 10
314.9215725387678
 20
1169.0000349999989
 40
5
 50
270
 51
0
  0
ARC
  8
_0-0_LAY
  6
CONTINUOUS
 62
    2
 10
246.92154753876798
 20
1192.9999799999989
 40
5
 50
0
 51
90
  0
LINE
  8
_0-0_LAY
  6
CONTINUOUS
 62
    2
 10
251.92154753876798
 20
1169.0000349999989
 11
251.92154753876798
 21
1192.9999799999989
  0
LINE
  8
_0-0_LAY
  6
CONTINUOUS
 62
    2
 10
246.92154753876798
 20
1164.0000349999989
 11
245.3774266614837
 21
1164.0000349999989
  0
ARC
  8
_0-0_LAY
  6
CONTINUOUS
 62
    2
 10
246.92154753876798
 20
1169.0000349999989
 40
5
 50
270
 51
0
  0
LINE
  8
_0-0_LAY
  6
CONTINUOUS
 62
    2
 10
167.92631610445551
 20
1225.9999999999989
 11
743.92151753876794
 21
1225.9999999999989
  0
LINE
  8
_0-0_LAY
  6
CONTINUOUS
 62
    2
 10
246.92154753876798
 20
1197.9999799999989
 11
217.37748166148367
 21
1197.9999799999989
  0
ARC
  8
_0-0_LAY
  6
CONTINUOUS
 62
    2
 10
217.37748166148367
 20
1194.9999799999989
 40
3
 50
90
 51
225.00000000000006
  0
LINE
  8
_0-0_LAY
  6
CONTINUOUS
 62
    2
 10
243.25610631792415
 20
1164.8787146564393
 11
215.25616131792412
 21
1192.8786596564391
  0
LINE
  8
_0-0_LAY
  6
CONTINUOUS
 62
    2
 10
208.75004466351425
 20
1180.9999999999989
 11
225.92161753876803
 21
1163.8284271247451
  0
LINE
  8
_0-0_LAY
  6
CONTINUOUS
 62
    2
 10
205.92161753876803
 20
1180.9999999999989
 11
208.75004466351425
 21
1180.9999999999989
  0
LINE
  8
_0-0_LAY
  6
CONTINUOUS
 62
    2
 10
165.92631610445551
 20
1220.9999999999989
 11
205.92161753876803
 21
1180.9999999999989
  0
LINE
  8
_0-0_LAY
  6
CONTINUOUS
 62
    2
 10
165.92631610445551
 20
1223.9999999999989
 11
165.92631610445551
 21
1220.9999999999989
  0
LINE
  8
_0-0_LAY
  6
CONTINUOUS
 62
    2
 10
167.92631610445551
 20
1225.9999999999989
 11
165.92631610445551
 21
1223.9999999999989
  0
TEXT
  8
_0-9_ADD_LINE
 62
    7
 10
117.59938848838078
 20
1671.2640138024803
 40
16
 41
1
 50
44.999800999999948
  1
約7
  0
TEXT
  8
_0-9_ADD_LINE
 62
    7
 10
149.48030620522854
 20
1596.376546941533
 40
16
 41
1
 50
0
  1
45°
  0
LINE
  8
_0-9_ADD_LINE
  6
CONTINUOUS
 62
    7
 10
140.86627253876804
 20
1236.0552799999989
 11
162.07949753876778
 21
1214.8420849999986
  0
POINT
  8
_0-9_ADD_LINE
 62
    7
 10
140.86627253876804
 20
1236.0552799999989
  0
LINE
  8
_0-9_ADD_LINE
  6
CENTER1
 62
    7
 10
161.30392175908651
 20
1225.9999999999989
 11
150.921566759087
 21
1225.9999999999989
  0
LINE
  8
_0-9_ADD_LINE
  6
CENTER1
 62
    7
 10
150.921566759087
 20
1225.9999999999989
 11
150.921566759087
 21
1216.8249949999988
  0
LINE
  8
_0-9_ADD_LINE
  6
CONTINUOUS
 62
    7
 10
145.86629796761622
 20
1241.0553195711507
 11
140.86627253876804
 21
1236.0552799999989
  0
POINT
  8
_0-9_ADD_LINE
 62
    7
 10
145.86629796761622
 20
1241.0553195711507
  0
TEXT
  8
_0-9_ADD_LINE
 62
    7
 10
133.18045180105833
 20
1233.1929509025106
 40
16
 41
1
 50
44.999800999999948
  1
約7
  0
LINE
  8
_0-9_ADD_LINE
  6
CENTER1
 62
    7
 10
165.92156753876793
 20
1210.9999999999989
 11
225.92153271155712
 21
1151.0000149999989
  0
LINE
  8
_0-9_ADD_LINE
  6
CENTER1
 62
    7
 10
225.92153271155712
 20
1151.0000149999989
 11
165.92156753876793
 21
1151.0000149999989
  0
ARC
  8
_0-9_ADD_LINE
  6
CONTINUOUS
 62
    7
 10
236.52818753876795
 20
1150.999939999999
 40
49.999997999999991
 50
135
 51
179.9999
  0
TEXT
  8
_0-9_ADD_LINE
 62
    7
 10
164.17315851596845
 20
1161.4689042531365
 40
16
 41
1
 50
0
  1
45°
  0
LINE
  8
_0-9_ADD_LINE
  6
CONTINUOUS
 62
    7
 10
201.17284253876801
 20
1186.3552849999992
 11
198.17285753876763
 21
1181.1591199999987
  0
LINE
  8
_0-9_ADD_LINE
  6
CONTINUOUS
 62
    7
 10
201.17284253876801
 20
1186.3552849999992
 11
195.97670753876787
 21
1183.3552699999989
  0
LINE
  8
_0-9_ADD_LINE
  6
CONTINUOUS
 62
    7
 10
186.52817753876775
 20
1151.0000149999989
 11
188.08111253876791
 21
1156.795609999999
  0
LINE
  8
_0-9_ADD_LINE
  6
CONTINUOUS
 62
    7
 10
186.52817753876775
 20
1151.0000149999989
 11
184.97527253876797
 21
1156.795609999999
  0
LINE
  8
_0-9_ADD_LINE
  6
CONTINUOUS
 62
    7
 10
165.33573110114094
 20
1285.9666949999989
 11
165.33573110114094
 21
1255.9666949999989
  0
LINE
  8
_0-9_ADD_LINE
  6
CONTINUOUS
 62
    7
 10
150.33568110114084
 20
1051.0000149999989
 11
150.33568110114084
 21
1121.0000149999989
  0
LINE
  8
_0-9_ADD_LINE
  6
CONTINUOUS
 62
    7
 10
165.33573110114094
 20
1121.0000149999989
 11
165.33573110114094
 21
1071.0000149999989
  0
LINE
  8
_0-9_ADD_LINE
  6
CONTINUOUS
 62
    7
 10
165.33573110114094
 20
1091.0000149999989
 11
220.33573110114139
 21
1091.0000149999989
  0
TEXT
  8
_0-9_ADD_LINE
 62
    7
 10
184.96073110114094
 20
1092.5000149999989
 40
16
 41
1
 50
0
  1
55
  0
LINE
  8
_0-9_ADD_LINE
  6
CONTINUOUS
 62
    7
 10
220.33573110114139
 20
1091.0000149999989
 11
220.33573110114139
 21
1121.0000149999989
  0
POINT
  8
_0-9_ADD_LINE
 62
    7
 10
220.33573110114139
 20
1091.0000149999989
  0
POINT
  8
_0-9_ADD_LINE
 62
    7
 10
165.33573110114094
 20
1091.0000149999989
  0
TEXT
  8
_0-9_ADD_LINE
 62
    7
 10
148.22630802766889
 20
1071.0533558426339
 40
16
 41
1
 50
0
  1
15
  0
LINE
  8
_0-9_ADD_LINE
  6
CONTINUOUS
 62
    7
 10
150.33573110114139
 20
1071.0000149999989
 11
745.33573110114094
 21
1071.0000149999989
  0
POINT
  8
_0-9_ADD_LINE
 62
    7
 10
150.33573110114139
 20
1071.0000149999989
  0
POINT
  8
_0-9_ADD_LINE
 62
    7
 10
165.33573110114094
 20
1071.0000149999989
  0
POINT
  8
_0-9_ADD_LINE
 62
    7
 10
150.33568110114084
 20
1051.0000149999989
  0
LINE
  8
_0-9_ADD_LINE
  6
CONTINUOUS
 62
    7
 10
150.33568110114084
 20
1051.0000149999989
 11
745.33573110114094
 21
1051.0000149999989
  0
TEXT
  8
_0-9_ADD_LINE
 62
    7
 10
438.38573110114066
 20
1072.5000149999989
 40
16
 41
1
 50
0
  1
580
  0
TEXT
  8
_0-9_ADD_LINE
 62
    7
 10
440.33573110114094
 20
1052.0000149999989
 40
16
 41
1
 50
0
  1
595
  0
POINT
  8
_0-9_ADD_LINE
 62
    7
 10
745.33573110114094
 20
1071.0000149999989
  0
POINT
  8
_0-9_ADD_LINE
 62
    7
 10
745.33573110114094
 20
1051.0000149999989
  0
LINE
  8
_0-9_ADD_LINE
  6
CONTINUOUS
 62
    7
 10
745.33573110114094
 20
1051.0000149999989
 11
745.33573110114094
 21
1121.0000149999989
  0
LINE
  8
_0-9_ADD_LINE
  6
CONTINUOUS
 62
    7
 10
805.33573110114094
 20
1151.0000149999989
 11
775.33573110114094
 21
1151.0000149999989
  0
LINE
  8
_0-9_ADD_LINE
  6
CONTINUOUS
 62
    7
 10
251.33573110114094
 20
1285.9666949999989
 11
251.33573110114094
 21
1255.9666949999989
  0
LINE
  8
_0-9_ADD_LINE
  6
CONTINUOUS
 62
    7
 10
264.33573110114094
 20
1285.9666949999989
 11
264.33573110114094
 21
1255.9666949999989
  0
LINE
  8
_0-9_ADD_LINE
  6
CONTINUOUS
 62
    7
 10
319.33573110114094
 20
1285.9666949999989
 11
319.33573110114094
 21
1255.9666949999989
  0
LINE
  8
_0-9_ADD_LINE
  6
CONTINUOUS
 62
    7
 10
332.33573110114094
 20
1285.9666949999989
 11
332.33573110114094
 21
1255.9666949999989
  0
LINE
  8
_0-9_ADD_LINE
  6
CONTINUOUS
 62
    7
 10
387.33573110114094
 20
1285.9666949999989
 11
387.33573110114094
 21
1255.9666949999989
  0
LINE
  8
_0-9_ADD_LINE
  6
CONTINUOUS
 62
    7
 10
400.33573110114094
 20
1285.9666949999989
 11
400.33573110114094
 21
1255.9666949999989
  0
LINE
  8
_0-9_ADD_LINE
  6
CONTINUOUS
 62
    7
 10
447.83573110114094
 20
1285.9666949999989
 11
447.83573110114094
 21
1255.9666949999989
  0
LINE
  8
_0-9_ADD_LINE
  6
CONTINUOUS
 62
    7
 10
460.83573110114094
 20
1285.9666949999989
 11
460.83573110114094
 21
1255.9666949999989
  0
LINE
  8
_0-9_ADD_LINE
  6
CONTINUOUS
 62
    7
 10
508.33573110114094
 20
1285.9666949999989
 11
508.33573110114094
 21
1255.9666949999989
  0
LINE
  8
_0-9_ADD_LINE
  6
CONTINUOUS
 62
    7
 10
521.33573110114094
 20
1285.9666949999989
 11
521.33573110114094
 21
1255.9666949999989
  0
LINE
  8
_0-9_ADD_LINE
  6
CONTINUOUS
 62
    7
 10
576.33573110114094
 20
1285.9666949999989
 11
576.33573110114094
 21
1255.9666949999989
  0
LINE
  8
_0-9_ADD_LINE
  6
CONTINUOUS
 62
    7
 10
589.33573110114094
 20
1285.9666949999989
 11
589.33573110114094
 21
1255.9666949999989
  0
LINE
  8
_0-9_ADD_LINE
  6
CONTINUOUS
 62
    7
 10
644.33573110114094
 20
1285.9666949999989
 11
644.33573110114094
 21
1255.9666949999989
  0
LINE
  8
_0-9_ADD_LINE
  6
CONTINUOUS
 62
    7
 10
657.33573110114094
 20
1285.9666949999989
 11
657.33573110114094
 21
1255.9666949999989
  0
LINE
  8
_0-9_ADD_LINE
  6
CONTINUOUS
 62
    7
 10
712.33573110114094
 20
1285.9666949999989
 11
712.33573110114094
 21
1255.9666949999989
  0
LINE
  8
_0-9_ADD_LINE
  6
CONTINUOUS
 62
    7
 10
725.33573110114094
 20
1285.9666949999989
 11
725.33573110114094
 21
1255.9666949999989
  0
LINE
  8
_0-9_ADD_LINE
  6
CONTINUOUS
 62
    7
 10
745.33573110114094
 20
1285.9666949999989
 11
745.33573110114094
 21
1255.9666949999989
  0
LINE
  8
_0-9_ADD_LINE
  6
CONTINUOUS
 62
    7
 10
805.33573110114094
 20
1226.0000149999989
 11
775.33573110114094
 21
1226.0000149999989
  0
LINE
  8
_0-9_ADD_LINE
  6
CONTINUOUS
 62
    7
 10
165.33573110114094
 20
1285.9666949999989
 11
251.33573110114094
 21
1285.9666949999989
  0
POINT
  8
_0-9_ADD_LINE
 62
    7
 10
165.33573110114094
 20
1285.9666949999989
  0
POINT
  8
_0-9_ADD_LINE
 62
    7
 10
251.33573110114094
 20
1285.9666949999989
  0
LINE
  8
_0-9_ADD_LINE
  6
CONTINUOUS
 62
    7
 10
165.33573110114094
 20
1285.9666949999989
 11
165.33573110114094
 21
1274.8973788816295
  0
LINE
  8
_0-9_ADD_LINE
  6
CONTINUOUS
 62
    7
 10
251.33573110114094
 20
1285.9666949999989
 11
251.33573110114094
 21
1274.8973788816295
  0
TEXT
  8
_0-9_ADD_LINE
 62
    7
 10
200.33573110114094
 20
1289.9666949999989
 40
16
 41
1
 50
0
  1
86
  0
LINE
  8
_0-9_ADD_LINE
  6
CONTINUOUS
 62
    7
 10
251.33573110114094
 20
1285.9666949999989
 11
264.33573110114094
 21
1285.9666949999989
  0
POINT
  8
_0-9_ADD_LINE
 62
    7
 10
264.33573110114094
 20
1285.9666949999989
  0
LINE
  8
_0-9_ADD_LINE
  6
CONTINUOUS
 62
    7
 10
264.33573110114094
 20
1285.9666949999989
 11
264.33573110114094
 21
1274.8973788816295
  0
TEXT
  8
_0-9_ADD_LINE
 62
    7
 10
249.83573110114094
 20
1289.9666949999989
 40
16
 41
1
 50
0
  1
13
  0
LINE
  8
_0-9_ADD_LINE
  6
CONTINUOUS
 62
    7
 10
264.33573110114094
 20
1285.9666949999989
 11
319.33573110114094
 21
1285.9666949999989
  0
POINT
  8
_0-9_ADD_LINE
 62
    7
 10
319.33573110114094
 20
1285.9666949999989
  0
LINE
  8
_0-9_ADD_LINE
  6
CONTINUOUS
 62
    7
 10
319.33573110114094
 20
1285.9666949999989
 11
319.33573110114094
 21
1274.8973788816295
  0
TEXT
  8
_0-9_ADD_LINE
 62
    7
 10
283.83573110114094
 20
1289.9666949999989
 40
16
 41
1
 50
0
  1
55
  0
LINE
  8
_0-9_ADD_LINE
  6
CONTINUOUS
 62
    7
 10
319.33573110114094
 20
1285.9666949999989
 11
332.33573110114094
 21
1285.9666949999989
  0
POINT
  8
_0-9_ADD_LINE
 62
    7
 10
332.33573110114094
 20
1285.9666949999989
  0
LINE
  8
_0-9_ADD_LINE
  6
CONTINUOUS
 62
    7
 10
332.33573110114094
 20
1285.9666949999989
 11
332.33573110114094
 21
1274.8973788816295
  0
TEXT
  8
_0-9_ADD_LINE
 62
    7
 10
317.83573110114094
 20
1289.9666949999989
 40
16
 41
1
 50
0
  1
13
  0
LINE
  8
_0-9_ADD_LINE
  6
CONTINUOUS
 62
    7
 10
332.33573110114094
 20
1285.9666949999989
 11
387.33573110114094
 21
1285.9666949999989
  0
POINT
  8
_0-9_ADD_LINE
 62
    7
 10
387.33573110114094
 20
1285.9666949999989
  0
LINE
  8
_0-9_ADD_LINE
  6
CONTINUOUS
 62
    7
 10
387.33573110114094
 20
1285.9666949999989
 11
387.33573110114094
 21
1274.8973788816295
  0
TEXT
  8
_0-9_ADD_LINE
 62
    7
 10
351.83573110114094
 20
1289.9666949999989
 40
16
 41
1
 50
0
  1
55
  0
LINE
  8
_0-9_ADD_LINE
  6
CONTINUOUS
 62
    7
 10
387.33573110114094
 20
1285.9666949999989
 11
400.33573110114094
 21
1285.9666949999989
  0
POINT
  8
_0-9_ADD_LINE
 62
    7
 10
400.33573110114094
 20
1285.9666949999989
  0
LINE
  8
_0-9_ADD_LINE
  6
CONTINUOUS
 62
    7
 10
400.33573110114094
 20
1285.9666949999989
 11
400.33573110114094
 21
1274.8973788816295
  0
TEXT
  8
_0-9_ADD_LINE
 62
    7
 10
385.83573110114094
 20
1289.9666949999989
 40
16
 41
1
 50
0
  1
13
  0
LINE
  8
_0-9_ADD_LINE
  6
CONTINUOUS
 62
    7
 10
400.33573110114094
 20
1285.9666949999989
 11
447.83573110114094
 21
1285.9666949999989
  0
POINT
  8
_0-9_ADD_LINE
 62
    7
 10
447.83573110114094
 20
1285.9666949999989
  0
LINE
  8
_0-9_ADD_LINE
  6
CONTINUOUS
 62
    7
 10
447.83573110114094
 20
1285.9666949999989
 11
447.83573110114094
 21
1274.8973788816295
  0
TEXT
  8
_0-9_ADD_LINE
 62
    7
 10
408.08573110114094
 20
1289.9666949999989
 40
16
 41
1
 50
0
  1
47.5
  0
LINE
  8
_0-9_ADD_LINE
  6
CONTINUOUS
 62
    7
 10
447.83573110114094
 20
1285.9666949999989
 11
460.83573110114094
 21
1285.9666949999989
  0
POINT
  8
_0-9_ADD_LINE
 62
    7
 10
460.83573110114094
 20
1285.9666949999989
  0
LINE
  8
_0-9_ADD_LINE
  6
CONTINUOUS
 62
    7
 10
460.83573110114094
 20
1285.9666949999989
 11
460.83573110114094
 21
1274.8973788816295
  0
TEXT
  8
_0-9_ADD_LINE
 62
    7
 10
446.33573110114094
 20
1289.9666949999989
 40
16
 41
1
 50
0
  1
13
  0
LINE
  8
_0-9_ADD_LINE
  6
CONTINUOUS
 62
    7
 10
460.83573110114094
 20
1285.9666949999989
 11
508.33573110114094
 21
1285.9666949999989
  0
POINT
  8
_0-9_ADD_LINE
 62
    7
 10
508.33573110114094
 20
1285.9666949999989
  0
LINE
  8
_0-9_ADD_LINE
  6
CONTINUOUS
 62
    7
 10
508.33573110114094
 20
1285.9666949999989
 11
508.33573110114094
 21
1274.8973788816295
  0
TEXT
  8
_0-9_ADD_LINE
 62
    7
 10
468.58573110114094
 20
1289.9666949999989
 40
16
 41
1
 50
0
  1
47.5
  0
LINE
  8
_0-9_ADD_LINE
  6
CONTINUOUS
 62
    7
 10
508.33573110114094
 20
1285.9666949999989
 11
521.33573110114094
 21
1285.9666949999989
  0
POINT
  8
_0-9_ADD_LINE
 62
    7
 10
521.33573110114094
 20
1285.9666949999989
  0
LINE
  8
_0-9_ADD_LINE
  6
CONTINUOUS
 62
    7
 10
521.33573110114094
 20
1285.9666949999989
 11
521.33573110114094
 21
1274.8973788816295
  0
TEXT
  8
_0-9_ADD_LINE
 62
    7
 10
506.83573110114094
 20
1289.9666949999989
 40
16
 41
1
 50
0
  1
13
  0
LINE
  8
_0-9_ADD_LINE
  6
CONTINUOUS
 62
    7
 10
521.33573110114094
 20
1285.9666949999989
 11
576.33573110114094
 21
1285.9666949999989
  0
POINT
  8
_0-9_ADD_LINE
 62
    7
 10
576.33573110114094
 20
1285.9666949999989
  0
LINE
  8
_0-9_ADD_LINE
  6
CONTINUOUS
 62
    7
 10
576.33573110114094
 20
1285.9666949999989
 11
576.33573110114094
 21
1274.8973788816295
  0
TEXT
  8
_0-9_ADD_LINE
 62
    7
 10
540.83573110114094
 20
1289.9666949999989
 40
16
 41
1
 50
0
  1
55
  0
LINE
  8
_0-9_ADD_LINE
  6
CONTINUOUS
 62
    7
 10
576.33573110114094
 20
1285.9666949999989
 11
589.33573110114094
 21
1285.9666949999989
  0
POINT
  8
_0-9_ADD_LINE
 62
    7
 10
589.33573110114094
 20
1285.9666949999989
  0
LINE
  8
_0-9_ADD_LINE
  6
CONTINUOUS
 62
    7
 10
589.33573110114094
 20
1285.9666949999989
 11
589.33573110114094
 21
1274.8973788816295
  0
TEXT
  8
_0-9_ADD_LINE
 62
    7
 10
574.83573110114094
 20
1289.9666949999989
 40
16
 41
1
 50
0
  1
13
  0
LINE
  8
_0-9_ADD_LINE
  6
CONTINUOUS
 62
    7
 10
589.33573110114094
 20
1285.9666949999989
 11
644.33573110114094
 21
1285.9666949999989
  0
POINT
  8
_0-9_ADD_LINE
 62
    7
 10
644.33573110114094
 20
1285.9666949999989
  0
LINE
  8
_0-9_ADD_LINE
  6
CONTINUOUS
 62
    7
 10
644.33573110114094
 20
1285.9666949999989
 11
644.33573110114094
 21
1274.8973788816295
  0
TEXT
  8
_0-9_ADD_LINE
 62
    7
 10
608.83573110114094
 20
1289.9666949999989
 40
16
 41
1
 50
0
  1
55
  0
LINE
  8
_0-9_ADD_LINE
  6
CONTINUOUS
 62
    7
 10
644.33573110114094
 20
1285.9666949999989
 11
657.33573110114094
 21
1285.9666949999989
  0
POINT
  8
_0-9_ADD_LINE
 62
    7
 10
657.33573110114094
 20
1285.9666949999989
  0
LINE
  8
_0-9_ADD_LINE
  6
CONTINUOUS
 62
    7
 10
657.33573110114094
 20
1285.9666949999989
 11
657.33573110114094
 21
1274.8973788816295
  0
TEXT
  8
_0-9_ADD_LINE
 62
    7
 10
642.83573110114094
 20
1289.9666949999989
 40
16
 41
1
 50
0
  1
13
  0
LINE
  8
_0-9_ADD_LINE
  6
CONTINUOUS
 62
    7
 10
657.33573110114094
 20
1285.9666949999989
 11
712.33573110114094
 21
1285.9666949999989
  0
POINT
  8
_0-9_ADD_LINE
 62
    7
 10
712.33573110114094
 20
1285.9666949999989
  0
LINE
  8
_0-9_ADD_LINE
  6
CONTINUOUS
 62
    7
 10
712.33573110114094
 20
1285.9666949999989
 11
712.33573110114094
 21
1274.8973788816295
  0
TEXT
  8
_0-9_ADD_LINE
 62
    7
 10
676.83573110114094
 20
1289.9666949999989
 40
16
 41
1
 50
0
  1
55
  0
LINE
  8
_0-9_ADD_LINE
  6
CONTINUOUS
 62
    7
 10
712.33573110114094
 20
1285.9666949999989
 11
725.33573110114094
 21
1285.9666949999989
  0
POINT
  8
_0-9_ADD_LINE
 62
    7
 10
725.33573110114094
 20
1285.9666949999989
  0
LINE
  8
_0-9_ADD_LINE
  6
CONTINUOUS
 62
    7
 10
725.33573110114094
 20
1285.9666949999989
 11
725.33573110114094
 21
1274.8973788816295
  0
TEXT
  8
_0-9_ADD_LINE
 62
    7
 10
710.83573110114094
 20
1289.9666949999989
 40
16
 41
1
 50
0
  1
13
  0
LINE
  8
_0-9_ADD_LINE
  6
CONTINUOUS
 62
    7
 10
725.33573110114094
 20
1285.9666949999989
 11
745.33573110114094
 21
1285.9666949999989
  0
POINT
  8
_0-9_ADD_LINE
 62
    7
 10
745.33573110114094
 20
1285.9666949999989
  0
LINE
  8
_0-9_ADD_LINE
  6
CONTINUOUS
 62
    7
 10
745.33573110114094
 20
1285.9666949999989
 11
745.33573110114094
 21
1274.8973788816295
  0
TEXT
  8
_0-9_ADD_LINE
 62
    7
 10
727.33573110114094
 20
1289.9666949999989
 40
16
 41
1
 50
0
  1
20
  0
LINE
  8
_0-9_ADD_LINE
  6
CONTINUOUS
 62
    7
 10
805.33573110114094
 20
1151.0000149999989
 11
805.33573110114094
 21
1226.0000149999989
  0
POINT
  8
_0-9_ADD_LINE
 62
    7
 10
805.33573110114094
 20
1151.0000149999989
  0
POINT
  8
_0-9_ADD_LINE
 62
    7
 10
805.33573110114094
 20
1226.0000149999989
  0
LINE
  8
_0-9_ADD_LINE
  6
CONTINUOUS
 62
    7
 10
805.33573110114094
 20
1151.0000149999989
 11
813.26558983138773
 21
1151.0000149999989
  0
LINE
  8
_0-9_ADD_LINE
  6
CONTINUOUS
 62
    7
 10
805.33573110114094
 20
1226.0000149999989
 11
813.26558983138773
 21
1226.0000149999989
  0
TEXT
  8
_0-9_ADD_LINE
 62
    7
 10
801.33573110114094
 20
1180.5000149999989
 40
16
 41
1
 50
90
  1
75
  0
LINE
  8
_0-9_ADD_LINE
  6
CONTINUOUS
 62
    7
 10
622.13854310718716
 20
1151
 11
622.13854310718716
 21
1164.0000349999989
  0
POINT
  8
_0-9_ADD_LINE
 62
    7
 10
622.13854310718716
 20
1151
  0
POINT
  8
_0-9_ADD_LINE
 62
    7
 10
622.13854310718716
 20
1164.0000349999989
  0
LINE
  8
_0-9_ADD_LINE
  6
CONTINUOUS
 62
    7
 10
622.13854310718716
 20
1151
 11
631.16618637970259
 21
1151
  0
LINE
  8
_0-9_ADD_LINE
  6
CONTINUOUS
 62
    7
 10
622.13854310718716
 20
1164.0000349999989
 11
631.16618637970259
 21
1164.0000349999989
  0
TEXT
  8
_0-9_ADD_LINE
 62
    7
 10
618.13854310718716
 20
1149.5000174999996
 40
16
 41
1
 50
90
  1
13
  0
LINE
  8
_0-9_ADD_LINE
  6
CONTINUOUS
 62
    7
 10
622.13854310718716
 20
1164.0000349999989
 11
622.13854310718716
 21
1197.9999799999989
  0
POINT
  8
_0-9_ADD_LINE
 62
    7
 10
622.13854310718716
 20
1197.9999799999989
  0
LINE
  8
_0-9_ADD_LINE
  6
CONTINUOUS
 62
    7
 10
622.13854310718716
 20
1197.9999799999989
 11
631.16618637970259
 21
1197.9999799999989
  0
TEXT
  8
_0-9_ADD_LINE
 62
    7
 10
618.13854310718716
 20
1173.0000074999989
 40
16
 41
1
 50
90
  1
34
  0
LINE
  8
_0-9_ADD_LINE
  6
CONTINUOUS
 62
    7
 10
622.13854310718716
 20
1197.9999799999989
 11
622.13854310718716
 21
1225.9999999999989
  0
POINT
  8
_0-9_ADD_LINE
 62
    7
 10
622.13854310718716
 20
1225.9999999999989
  0
LINE
  8
_0-9_ADD_LINE
  6
CONTINUOUS
 62
    7
 10
622.13854310718716
 20
1225.9999999999989
 11
631.16618637970259
 21
1225.9999999999989
  0
TEXT
  8
_0-9_ADD_LINE
 62
    7
 10
618.13854310718716
 20
1203.9999899999989
 40
16
 41
1
 50
90
  1
28
  0
TEXT
  8
_0-a_
 62
    7
 10
80.74855224676412
 20
1803.6915893460359
 40
28
 41
1
 50
0
  1
MNAY45-6056（コーナー）
  0
TEXT
  8
_0-a_
 62
    7
 10
80.220061022452683
 20
1389.3887764960348
 40
28
 41
1
 50
0
  1
MNAY45-7558（コーナー）
  0
ENDSEC
  0
EOF
