  0
SECTION
  2
HEADER
  9
$ACADVER
  1
AC1009
  9
$INSBASE
 10
0
 20
0
 30
0
  9
$EXTMIN
 10
0
 20
0
  9
$EXTMAX
 10
8400
 20
5940
  9
$LIMMIN
 10
0
 20
0
  9
$LIMMAX
 10
8400
 20
5940
  9
$LTSCALE
 40
20
  0
ENDSEC
  0
SECTION
  2
TABLES
  0
TABLE
  2
LTYPE
 70
     9
  0
LTYPE
  2
CONTINUOUS
 70
    64
  3
実線
 72
    65
 73
     0
 40
0.0
  0
LTYPE
  2
DASHED1
 70
    64
  3
--  --  --  --  --  --  --  --  
 72
    65
 73
     2
 40
2.5
 49
1.25
 49
-1.25
  0
LTYPE
  2
DASHED2
 70
    64
  3
----    ----    ----    ----    
 72
    65
 73
     2
 40
5.0
 49
2.5
 49
-2.5
  0
LTYPE
  2
DASHED3
 70
    64
  3
------  ------  ------  ------  
 72
    65
 73
     2
 40
5.0
 49
3.75
 49
-1.25
  0
LTYPE
  2
CENTER1
 70
    64
  3
----- - ----- - ----- - ----- - 
 72
    65
 73
     4
 40
10.0
 49
6.25
 49
-1.25
 49
1.25
 49
-1.25
  0
LTYPE
  2
CENTER2
 70
    64
  3
----------  --  ----------  --  
 72
    65
 73
     4
 40
20.0
 49
12.5
 49
-2.5
 49
2.5
 49
-2.5
  0
LTYPE
  2
PHANTOM1
 70
    64
  3
--- - - --- - - --- - - --- - - 
 72
    65
 73
     6
 40
10.0
 49
3.25
 49
-1.25
 49
1.25
 49
-1.25
 49
1.25
 49
-1.25
  0
LTYPE
  2
PHANTOM2
 70
    64
  3
--------  -  -  --------  -  -  
 72
    65
 73
     6
 40
20.0
 49
10.0
 49
-2.5
 49
1.25
 49
-2.5
 49
1.25
 49
-2.5
  0
LTYPE
  2
DOT
 70
    64
  3
-   -   -   -   -   -   -   -   
 72
    65
 73
     2
 40
2.5
 49
0.625
 49
-1.875
  0
LTYPE
  2
DUMMY
 70
    64
  3
ダミー
 72
    65
 73
     0
 40
0.0
  0
LTYPE
  2
RAND1
 70
    64
  3
ランダム線1
 72
    65
 73
     4
 40
10.0
 49
1.0
 49
-2.0
 49
3.0
 49
-4.0
  0
LTYPE
  2
RAND2
 70
    64
  3
ランダム線2
 72
    65
 73
     4
 40
14.0
 49
2.0
 49
-3.0
 49
4.0
 49
-5.0
  0
LTYPE
  2
RAND3
 70
    64
  3
ランダム線3
 72
    65
 73
     4
 40
18.0
 49
3.0
 49
-4.0
 49
5.0
 49
-6.0
  0
LTYPE
  2
RAND4
 70
    64
  3
ランダム線4
 72
    65
 73
     4
 40
22.0
 49
4.0
 49
-5.0
 49
6.0
 49
-7.0
  0
LTYPE
  2
RAND5
 70
    64
  3
ランダム線5
 72
    65
 73
     4
 40
26.0
 49
5.0
 49
-6.0
 49
7.0
 49
-8.0
  0
LTYPE
  2
LONG1
 70
    64
  3
----------  --  ----------  --  
 72
    65
 73
     4
 40
40.0
 49
32.5
 49
-2.5
 49
2.5
 49
-2.5
  0
LTYPE
  2
LONG2
 70
    64
  3
--------  -  -  --------  -  -  
 72
    65
 73
     6
 40
40.0
 49
30.0
 49
-2.5
 49
1.25
 49
-2.5
 49
1.25
 49
-2.5
  0
LTYPE
  2
LONG3
 70
    64
  3
+++++++++++++++..+++++++++++++++
 72
    65
 73
     2
 40
40.0
 49
37.5
 49
-2.5
  0
LTYPE
  2
LONG4
 70
    64
  3
+++++++++++++++..+++++++++++++++
 72
    65
 73
     2
 40
80.0
 49
75.0
 49
-5.0
  0
LTYPE
  2
LONG5
 70
    64
  3
----------  --  ----------  --  
 72
    65
 73
     4
 40
60.0
 49
37.5
 49
-7.5
 49
7.5
 49
-7.5
  0
LTYPE
  2
dashed
 70
   64
  3
-------   -------------   ------
 72
   65
 73
    2
 40
7.5
 49
6
 49
-1.5
  0
LTYPE
  2
dashed_spaced
 70
   64
  3
----        --------        ----
 72
   65
 73
    2
 40
12
 49
6
 49
-6
  0
LTYPE
  2
long_dashed_dotted
 70
   64
  3
------------- --- --------------
 72
   65
 73
    4
 40
15.25
 49
12
 49
-1.5
 49
0.25
 49
-1.5
  0
LTYPE
  2
long_dashed_double-dotted
 70
   64
  3
----------- --- --- ------------
 72
   65
 73
    6
 40
17
 49
12
 49
-1.5
 49
0.25
 49
-1.5
 49
0.25
 49
-1.5
  0
LTYPE
  2
long_dashed_triplicate-dotted
 70
   64
  3
--------- --- --- --- ----------
 72
   65
 73
    8
 40
18.75
 49
12
 49
-1.5
 49
0.25
 49
-1.5
 49
0.25
 49
-1.5
 49
0.25
 49
-1.5
  0
LTYPE
  2
dotted
 70
   64
  3
   -       -       -       -    
 72
   65
 73
    2
 40
1.75
 49
0.25
 49
-1.5
  0
LTYPE
  2
chain
 70
   64
  3
-------------- -- --------------
 72
   65
 73
    4
 40
18.5
 49
12
 49
-1.5
 49
3.5
 49
-1.5
  0
LTYPE
  2
chain_double_dash
 70
   64
  3
------------ -- -- -------------
 72
   65
 73
    6
 40
23.5
 49
12
 49
-1.5
 49
3.5
 49
-1.5
 49
3.5
 49
-1.5
  0
LTYPE
  2
dashed_dotted
 70
   64
  3
-----------     -     ----------
 72
   65
 73
    4
 40
9.25
 49
6
 49
-1.5
 49
0.25
 49
-1.5
  0
LTYPE
  2
double-dashed_dotted
 70
   64
  3
------   -----------   -   -----
 72
   65
 73
    6
 40
16.75
 49
6
 49
-1.5
 49
6
 49
-1.5
 49
0.25
 49
-1.5
  0
LTYPE
  2
dashed_double-dotted
 70
   64
  3
---------    -    -    ---------
 72
   65
 73
    6
 40
11
 49
6
 49
-1.5
 49
0.25
 49
-1.5
 49
0.25
 49
-1.5
  0
LTYPE
  2
double-dashed_double-dotted
 70
   64
  3
-----   ---------   -   -   ----
 72
   65
 73
    8
 40
18.5
 49
6
 49
-1.5
 49
6
 49
-1.5
 49
0.25
 49
-1.5
 49
0.25
 49
-1.5
  0
LTYPE
  2
dashed_triplicate-dotted
 70
   64
  3
-------    -    -    -    ------
 72
   65
 73
    8
 40
12.75
 49
6
 49
-1.5
 49
0.25
 49
-1.5
 49
0.25
 49
-1.5
 49
0.25
 49
-1.5
  0
LTYPE
  2
double-dashed_triplicate-dotted
 70
   64
  3
-----  ---------  -  -  -  -----
 72
   65
 73
   10
 40
20.25
 49
6
 49
-1.5
 49
6
 49
-1.5
 49
0.25
 49
-1.5
 49
0.25
 49
-1.5
 49
0.25
 49
-1.5
  0
LTYPE
  2
undefined
 70
   64
  3
--------------------------------
 72
   65
 73
    0
 40
0
  0
ENDTAB
  0
TABLE
  2
STYLE
  5
3
100
AcDbSymbolTable
 70
     1
  0
STYLE
  5
10
100
AcDbSymbolTableRecord
100
AcDbTextStyleTableRecord
  2
STANDARD
 70
     0
 40
0.0
 41
1.0
 50
0.0
 71
     0
 42
0.2
  3
txt
  4
bigfont.shx
  0
STYLE
  5
26
100
AcDbSymbolTableRecord
100
AcDbTextStyleTableRecord
  2
TATEGAKI
 70
    68
 40
0.0
 41
1.0
 50
0.0
 71
     0
 42
1.0
  3
txt
  4
bigfont.shx
  0
ENDTAB
  0
TABLE
  2
LAYER
 70
    8
  0
LAYER
  2
_0-0_
 70
   64
 62
    7
  6
CONTINUOUS
  0
LAYER
  2
_0-8_
 70
   64
 62
    7
  6
CONTINUOUS
  0
LAYER
  2
_0-9_
 70
   64
 62
    7
  6
CONTINUOUS
  0
LAYER
  2
_1-a_
 70
   64
 62
    7
  6
CONTINUOUS
  0
LAYER
  2
_1-b_
 70
   64
 62
    7
  6
CONTINUOUS
  0
LAYER
  2
_2-b_
 70
   64
 62
    7
  6
CONTINUOUS
  0
LAYER
  2
_2-c_ADD_LINE
 70
   64
 62
    7
  6
CONTINUOUS
  0
LAYER
  2
ADD_LINE
 70
   64
 62
    7
  6
CONTINUOUS
  0
ENDTAB
  0
ENDSEC
  0
SECTION
  2
BLOCKS
  0
ENDSEC
  0
SECTION
  2
ENTITIES
  0
LINE
  8
_1-a_
  6
CONTINUOUS
 62
    7
 10
2700.472350230415
 20
2429.5506912442397
 11
2700.472350230415
 21
2389.5506912442397
  0
LINE
  8
_1-a_
  6
CONTINUOUS
 62
    7
 10
3010.472350230415
 20
2429.5506912442397
 11
3010.472350230415
 21
2389.5506912442397
  0
LINE
  8
_1-b_
  6
CONTINUOUS
 62
    7
 10
2170.472350230415
 20
2719.5506912442397
 11
2440.4721852705329
 21
2719.5506912442397
  0
LINE
  8
_1-b_
  6
CONTINUOUS
 62
    7
 10
2170.472350230415
 20
3039.5506912442397
 11
2440.4721852705329
 21
3039.5506912442397
  0
LINE
  8
_1-a_
  6
CONTINUOUS
 62
    7
 10
1070.4723502304148
 20
2749.5506912442397
 11
1970.472350230415
 21
2749.5506912442397
  0
LINE
  8
_1-a_
  6
CONTINUOUS
 62
    7
 10
1070.4723502304148
 20
3069.5506912442397
 11
1970.472350230415
 21
3069.5506912442397
  0
LINE
  8
_1-a_
  6
CONTINUOUS
 62
    7
 10
1070.4723502304148
 20
3389.5506912442397
 11
1970.472350230415
 21
3389.5506912442397
  0
LINE
  8
ADD_LINE
  6
DOT
 62
    7
 10
990.4723502304148
 20
3469.5506912442397
 11
990.4723502304148
 21
1999.5506912442397
  0
LINE
  8
ADD_LINE
  6
DOT
 62
    7
 10
2020.472350230415
 20
3469.5506912442397
 11
2020.472350230415
 21
1999.5506912442397
  0
LINE
  8
_1-a_
  6
CONTINUOUS
 62
    7
 10
1970.472350230415
 20
2429.5506912442397
 11
1070.4723502304148
 21
2429.5506912442397
  0
LINE
  8
_1-a_
  6
CONTINUOUS
 62
    7
 10
2170.472350230415
 20
2429.5506912442397
 11
3070.472350230415
 21
2429.5506912442397
  0
LINE
  8
_1-a_
  6
CONTINUOUS
 62
    7
 10
2170.472350230415
 20
2749.5506912442397
 11
3070.472350230415
 21
2749.5506912442397
  0
LINE
  8
_1-a_
  6
CONTINUOUS
 62
    7
 10
2170.472350230415
 20
3069.5506912442397
 11
3070.472350230415
 21
3069.5506912442397
  0
LINE
  8
_1-a_
  6
CONTINUOUS
 62
    7
 10
2170.472350230415
 20
3389.5506912442397
 11
3070.472350230415
 21
3389.5506912442397
  0
LINE
  8
_1-a_
  6
CONTINUOUS
 62
    7
 10
2170.472350230415
 20
2749.5506912442397
 11
3070.472350230415
 21
2749.5506912442397
  0
LINE
  8
ADD_LINE
  6
DOT
 62
    7
 10
2090.472350230415
 20
3469.5506912442397
 11
2090.472350230415
 21
1999.5506912442397
  0
LINE
  8
ADD_LINE
  6
DOT
 62
    7
 10
3120.472350230415
 20
3469.5506912442397
 11
3120.472350230415
 21
1999.5506912442397
  0
LINE
  8
ADD_LINE
  6
DOT
 62
    7
 10
990.4723502304148
 20
3469.5506912442397
 11
2020.472350230415
 21
3469.5506912442397
  0
LINE
  8
ADD_LINE
  6
DOT
 62
    7
 10
2090.472350230415
 20
3469.5506912442397
 11
3120.472350230415
 21
3469.5506912442397
  0
LINE
  8
_1-b_
  6
CONTINUOUS
 62
    7
 10
1070.4723502304148
 20
3389.5506912442397
 11
1070.4723502304148
 21
3359.5506912442397
  0
LINE
  8
_1-b_
  6
CONTINUOUS
 62
    7
 10
1070.4723502304148
 20
3069.5506912442397
 11
1070.4723502304148
 21
3039.5506912442397
  0
LINE
  8
_1-b_
  6
CONTINUOUS
 62
    7
 10
1070.4723502304148
 20
2749.5506912442397
 11
1070.4723502304148
 21
2719.5506912442397
  0
LINE
  8
_1-b_
  6
CONTINUOUS
 62
    7
 10
2170.472350230415
 20
2749.5506912442397
 11
2170.472350230415
 21
2719.5506912442397
  0
LINE
  8
_1-b_
  6
CONTINUOUS
 62
    7
 10
2170.472350230415
 20
3069.5506912442397
 11
2170.472350230415
 21
3039.5506912442397
  0
LINE
  8
_1-b_
  6
CONTINUOUS
 62
    7
 10
2170.472350230415
 20
3389.5506912442397
 11
2170.472350230415
 21
3359.5506912442397
  0
LINE
  8
_1-b_
  6
CONTINUOUS
 62
    7
 10
1340.4721852705329
 20
3389.5506912442397
 11
1340.4721852705329
 21
3359.5506912442397
  0
LINE
  8
_1-b_
  6
CONTINUOUS
 62
    7
 10
1070.4723502304148
 20
3389.5506912442397
 11
1340.4721852705329
 21
3389.5506912442397
  0
LINE
  8
_1-b_
  6
CONTINUOUS
 62
    7
 10
1070.4723502304148
 20
3359.5506912442397
 11
1340.4721852705329
 21
3359.5506912442397
  0
TEXT
  8
_1-b_
 62
    7
 10
1091.2826357428503
 20
3365.3548541184609
 40
17.5
 41
1
 50
0
  1
ＭＮＬＫ－６０４５Ｓ５Ｋ
  0
LINE
  8
_1-b_
  6
CONTINUOUS
 62
    7
 10
2440.4721852705329
 20
3389.5506912442397
 11
2440.4721852705329
 21
3359.5506912442397
  0
LINE
  8
_1-b_
  6
CONTINUOUS
 62
    7
 10
2170.472350230415
 20
3069.5506912442397
 11
2440.4721852705329
 21
3069.5506912442397
  0
LINE
  8
_1-b_
  6
CONTINUOUS
 62
    7
 10
2170.472350230415
 20
3359.5506912442397
 11
2440.4721852705329
 21
3359.5506912442397
  0
LINE
  8
_1-b_
  6
CONTINUOUS
 62
    7
 10
2170.472350230415
 20
3389.5506912442397
 11
2440.4721852705329
 21
3389.5506912442397
  0
LINE
  8
_1-b_
  6
CONTINUOUS
 62
    7
 10
2440.4721852705329
 20
3069.5506912442397
 11
2440.4721852705329
 21
3039.5506912442397
  0
LINE
  8
_1-b_
  6
CONTINUOUS
 62
    7
 10
2170.472350230415
 20
2749.5506912442397
 11
2440.4721852705329
 21
2749.5506912442397
  0
LINE
  8
_1-b_
  6
CONTINUOUS
 62
    7
 10
2440.4721852705329
 20
2749.5506912442397
 11
2440.4721852705329
 21
2719.5506912442397
  0
LINE
  8
_1-b_
  6
CONTINUOUS
 62
    7
 10
1070.4723502304148
 20
3069.5506912442397
 11
1340.4721852705329
 21
3069.5506912442397
  0
LINE
  8
_1-b_
  6
CONTINUOUS
 62
    7
 10
1070.4723502304148
 20
3039.5506912442397
 11
1340.4721852705329
 21
3039.5506912442397
  0
LINE
  8
_1-b_
  6
CONTINUOUS
 62
    7
 10
1070.4723502304148
 20
2749.5506912442397
 11
1340.4721852705329
 21
2749.5506912442397
  0
LINE
  8
_1-b_
  6
CONTINUOUS
 62
    7
 10
1070.4723502304148
 20
2719.5506912442397
 11
1340.4721852705329
 21
2719.5506912442397
  0
LINE
  8
_1-b_
  6
CONTINUOUS
 62
    7
 10
1340.4721852705329
 20
2749.5506912442397
 11
1340.4721852705329
 21
2719.5506912442397
  0
LINE
  8
_1-b_
  6
CONTINUOUS
 62
    7
 10
1340.4721852705329
 20
3069.5506912442397
 11
1340.4721852705329
 21
3039.5506912442397
  0
TEXT
  8
_1-b_
 62
    7
 10
1090.5526220717127
 20
3044.3579345855119
 40
17.5
 41
1
 50
0
  1
ＭＮＬＫ－６０５０Ｓ６Ｋ
  0
TEXT
  8
_1-b_
 62
    7
 10
1090.222315056518
 20
2725.4186765542613
 40
17.5
 41
1
 50
0
  1
ＭＮＬＫ－６０６０Ｓ７Ｋ
  0
LINE
  8
_0-0_
  6
CENTER1
 62
    7
 10
1518.472350230415
 20
3212.5506846458443
 11
1532.4723502304146
 21
3212.5506846458443
  0
LINE
  8
_0-0_
  6
CENTER1
 62
    7
 10
1525.4723502304148
 20
3219.5506846458443
 11
1525.4723502304148
 21
3205.5506846458447
  0
LINE
  8
_0-0_
  6
CENTER1
 62
    7
 10
1662.4723502304146
 20
3212.5506912442397
 11
1676.472350230415
 21
3212.5506912442397
  0
LINE
  8
_0-0_
  6
CENTER1
 62
    7
 10
1669.472350230415
 20
3219.5506912442397
 11
1669.472350230415
 21
3205.5506912442393
  0
LINE
  8
_0-0_
  6
CENTER1
 62
    7
 10
1590.4723502304148
 20
3246.5506912442397
 11
1604.4723502304146
 21
3246.5506912442397
  0
LINE
  8
_0-0_
  6
CENTER1
 62
    7
 10
1597.4723502304146
 20
3253.5506912442397
 11
1597.4723502304146
 21
3239.5506912442397
  0
LINE
  8
_0-0_
  6
CENTER1
 62
    7
 10
1453.472350230415
 20
3253.5506912442397
 11
1453.472350230415
 21
3239.5506912442397
  0
LINE
  8
_0-0_
  6
CENTER1
 62
    7
 10
1446.472350230415
 20
3246.5506912442397
 11
1460.4723502304148
 21
3246.5506912442397
  0
LINE
  8
_0-0_
  6
CENTER1
 62
    7
 10
1374.4723502304146
 20
3212.5506912442397
 11
1388.472350230415
 21
3212.5506912442397
  0
LINE
  8
_0-0_
  6
CENTER1
 62
    7
 10
1381.472350230415
 20
3219.5506912442397
 11
1381.472350230415
 21
3205.5506912442393
  0
CIRCLE
  8
_0-0_
  6
CONTINUOUS
 62
    7
 10
1381.472350230415
 20
3212.5506912442397
 40
1.3
  0
CIRCLE
  8
_0-0_
  6
CONTINUOUS
 62
    7
 10
1453.472350230415
 20
3246.5506912442397
 40
1.3
  0
CIRCLE
  8
_0-0_
  6
CONTINUOUS
 62
    7
 10
1525.4723502304148
 20
3212.5506846458443
 40
1.3
  0
CIRCLE
  8
_0-0_
  6
CONTINUOUS
 62
    7
 10
1597.4723502304146
 20
3246.5506912442397
 40
1.3
  0
CIRCLE
  8
_0-0_
  6
CONTINUOUS
 62
    7
 10
1669.472350230415
 20
3212.5506912442397
 40
1.3
  0
LINE
  8
_0-0_
  6
CONTINUOUS
 62
    7
 10
1438.472350230415
 20
3246.5506912442397
 11
1446.472350230415
 21
3238.5506912442397
  0
LINE
  8
_0-0_
  6
CONTINUOUS
 62
    7
 10
1460.4723502304148
 20
3238.5506912442397
 11
1468.472350230415
 21
3246.5506912442397
  0
LINE
  8
_0-0_
  6
CONTINUOUS
 62
    7
 10
1518.472350230415
 20
3220.5506912442393
 11
1510.4723502304148
 21
3212.5506912442397
  0
LINE
  8
_0-0_
  6
CONTINUOUS
 62
    7
 10
1532.4723502304146
 20
3220.5506912442393
 11
1540.4723502304148
 21
3212.5506912442397
  0
LINE
  8
_0-0_
  6
CONTINUOUS
 62
    7
 10
1590.4723502304148
 20
3238.5506912442397
 11
1582.4723502304146
 21
3246.5506912442397
  0
LINE
  8
_0-0_
  6
CONTINUOUS
 62
    7
 10
1612.4723502304146
 20
3246.5506912442397
 11
1604.4723502304146
 21
3238.5506912442397
  0
LINE
  8
_0-0_
  6
CONTINUOUS
 62
    7
 10
1662.4723502304146
 20
3220.5506912442393
 11
1654.472350230415
 21
3212.5506912442397
  0
LINE
  8
_0-0_
  6
CONTINUOUS
 62
    7
 10
1676.472350230415
 20
3220.5506912442393
 11
1684.472350230415
 21
3212.5506912442397
  0
LINE
  8
_0-0_
  6
CONTINUOUS
 62
    7
 10
1388.472350230415
 20
3220.5506912442393
 11
1396.472350230415
 21
3212.5506912442397
  0
LINE
  8
_0-0_
  6
CONTINUOUS
 62
    7
 10
1374.4723502304146
 20
3220.5506912442393
 11
1366.472350230415
 21
3212.5506912442397
  0
ARC
  8
_0-0_
  6
CONTINUOUS
 62
    7
 10
1324.4723502304146
 20
3238.5506912442397
 40
8
 50
90
 51
180
  0
LINE
  8
_0-0_
  6
CONTINUOUS
 62
    7
 10
1366.472350230415
 20
3246.5506912442397
 11
1324.4723502304146
 21
3246.5506912442397
  0
LINE
  8
_0-0_
  6
CONTINUOUS
 62
    7
 10
1374.4723502304146
 20
3238.5506912442397
 11
1374.4723502304146
 21
3220.5506912442393
  0
ARC
  8
_0-0_
  6
CONTINUOUS
 62
    7
 10
1366.472350230415
 20
3238.5506912442397
 40
8
 50
0
 51
90
  0
LINE
  8
_0-0_
  6
CONTINUOUS
 62
    7
 10
1316.472350230415
 20
3220.5506912442393
 11
1316.472350230415
 21
3238.5506912442397
  0
LINE
  8
_0-0_
  6
CONTINUOUS
 62
    7
 10
1324.4723502304146
 20
3212.5506912442397
 11
1366.472350230415
 21
3212.5506912442397
  0
ARC
  8
_0-0_
  6
CONTINUOUS
 62
    7
 10
1324.4723502304146
 20
3220.5506912442393
 40
8
 50
180
 51
270
  0
LINE
  8
_0-0_
  6
CONTINUOUS
 62
    7
 10
1388.472350230415
 20
3238.5506912442397
 11
1388.472350230415
 21
3220.5506912442393
  0
LINE
  8
_0-0_
  6
CONTINUOUS
 62
    7
 10
1396.472350230415
 20
3246.5506912442397
 11
1438.472350230415
 21
3246.5506912442397
  0
ARC
  8
_0-0_
  6
CONTINUOUS
 62
    7
 10
1396.472350230415
 20
3238.5506912442397
 40
8
 50
90
 51
180
  0
LINE
  8
_0-0_
  6
CONTINUOUS
 62
    7
 10
1446.472350230415
 20
3220.5506912442393
 11
1446.472350230415
 21
3238.5506912442397
  0
LINE
  8
_0-0_
  6
CONTINUOUS
 62
    7
 10
1438.472350230415
 20
3212.5506912442397
 11
1396.472350230415
 21
3212.5506912442397
  0
ARC
  8
_0-0_
  6
CONTINUOUS
 62
    7
 10
1438.472350230415
 20
3220.5506912442393
 40
8
 50
270
 51
0
  0
LINE
  8
_0-0_
  6
CONTINUOUS
 62
    7
 10
1460.4723502304148
 20
3220.5506912442393
 11
1460.4723502304148
 21
3238.5506912442397
  0
LINE
  8
_0-0_
  6
CONTINUOUS
 62
    7
 10
1468.472350230415
 20
3212.5506912442397
 11
1510.4723502304148
 21
3212.5506912442397
  0
ARC
  8
_0-0_
  6
CONTINUOUS
 62
    7
 10
1468.472350230415
 20
3220.5506912442393
 40
8
 50
180
 51
270
  0
LINE
  8
_0-0_
  6
CONTINUOUS
 62
    7
 10
1510.4723502304148
 20
3246.5506912442397
 11
1468.472350230415
 21
3246.5506912442397
  0
LINE
  8
_0-0_
  6
CONTINUOUS
 62
    7
 10
1518.472350230415
 20
3238.5506912442397
 11
1518.472350230415
 21
3220.5506912442393
  0
ARC
  8
_0-0_
  6
CONTINUOUS
 62
    7
 10
1510.4723502304148
 20
3238.5506912442397
 40
8
 50
0
 51
90
  0
LINE
  8
_0-0_
  6
CONTINUOUS
 62
    7
 10
1532.4723502304146
 20
3238.5506912442397
 11
1532.4723502304146
 21
3220.5506912442393
  0
LINE
  8
_0-0_
  6
CONTINUOUS
 62
    7
 10
1540.4723502304148
 20
3246.5506912442397
 11
1582.4723502304146
 21
3246.5506912442397
  0
ARC
  8
_0-0_
  6
CONTINUOUS
 62
    7
 10
1540.4723502304148
 20
3238.5506912442397
 40
8
 50
90
 51
180
  0
LINE
  8
_0-0_
  6
CONTINUOUS
 62
    7
 10
1590.4723502304148
 20
3220.5506912442393
 11
1590.4723502304148
 21
3238.5506912442397
  0
LINE
  8
_0-0_
  6
CONTINUOUS
 62
    7
 10
1582.4723502304146
 20
3212.5506912442397
 11
1540.4723502304148
 21
3212.5506912442397
  0
ARC
  8
_0-0_
  6
CONTINUOUS
 62
    7
 10
1582.4723502304146
 20
3220.5506912442393
 40
8
 50
270
 51
0
  0
LINE
  8
_0-0_
  6
CONTINUOUS
 62
    7
 10
1604.4723502304146
 20
3220.5506912442393
 11
1604.4723502304146
 21
3238.5506912442397
  0
LINE
  8
_0-0_
  6
CONTINUOUS
 62
    7
 10
1612.4723502304146
 20
3212.5506912442397
 11
1654.472350230415
 21
3212.5506912442397
  0
ARC
  8
_0-0_
  6
CONTINUOUS
 62
    7
 10
1612.4723502304146
 20
3220.5506912442393
 40
8
 50
180
 51
270
  0
LINE
  8
_0-0_
  6
CONTINUOUS
 62
    7
 10
1654.472350230415
 20
3246.5506912442397
 11
1612.4723502304146
 21
3246.5506912442397
  0
LINE
  8
_0-0_
  6
CONTINUOUS
 62
    7
 10
1662.4723502304146
 20
3238.5506912442397
 11
1662.4723502304146
 21
3220.5506912442393
  0
ARC
  8
_0-0_
  6
CONTINUOUS
 62
    7
 10
1654.472350230415
 20
3238.5506912442397
 40
8
 50
0
 51
90
  0
LINE
  8
_0-0_
  6
CONTINUOUS
 62
    7
 10
1676.472350230415
 20
3238.5506912442397
 11
1676.472350230415
 21
3220.5506912442393
  0
ARC
  8
_0-0_
  6
CONTINUOUS
 62
    7
 10
1684.472350230415
 20
3238.5506912442397
 40
8
 50
90
 51
180
  0
LINE
  8
_0-0_
  6
CONTINUOUS
 62
    7
 10
1726.472350230415
 20
3246.5506912442397
 11
1684.472350230415
 21
3246.5506912442397
  0
ARC
  8
_0-0_
  6
CONTINUOUS
 62
    7
 10
1726.472350230415
 20
3238.5506912442397
 40
8
 50
0
 51
90
  0
LINE
  8
_0-0_
  6
CONTINUOUS
 62
    7
 10
1734.472350230415
 20
3220.5506912442393
 11
1734.472350230415
 21
3238.5506912442397
  0
LINE
  8
_0-0_
  6
CONTINUOUS
 62
    7
 10
1726.472350230415
 20
3212.5506912442397
 11
1684.472350230415
 21
3212.5506912442397
  0
ARC
  8
_0-0_
  6
CONTINUOUS
 62
    7
 10
1726.472350230415
 20
3220.5506912442393
 40
8
 50
270
 51
0
  0
LINE
  8
_0-0_
  6
CONTINUOUS
 62
    7
 10
1748.472350230415
 20
3259.5506912442397
 11
1750.472350230415
 21
3257.5506912442397
  0
LINE
  8
_0-0_
  6
CONTINUOUS
 62
    7
 10
1302.4723502304146
 20
3259.5506912442397
 11
1748.472350230415
 21
3259.5506912442397
  0
LINE
  8
_0-0_
  6
CONTINUOUS
 62
    7
 10
1302.4723502304146
 20
3259.5506912442397
 11
1300.4723502304148
 21
3257.5506912442397
  0
LINE
  8
_0-0_
  6
CONTINUOUS
 62
    7
 10
1300.4723502304148
 20
3201.5506912442397
 11
1300.4723502304148
 21
3257.5506912442397
  0
LINE
  8
_0-0_
  6
CONTINUOUS
 62
    7
 10
1300.4723502304148
 20
3201.5506912442397
 11
1302.4723502304146
 21
3199.5506912442397
  0
LINE
  8
_0-0_
  6
CONTINUOUS
 62
    7
 10
1750.472350230415
 20
3201.5506912442397
 11
1750.472350230415
 21
3257.5506912442397
  0
LINE
  8
_0-0_
  6
CONTINUOUS
 62
    7
 10
1748.472350230415
 20
3199.5506912442397
 11
1302.4723502304146
 21
3199.5506912442397
  0
LINE
  8
_0-0_
  6
CONTINUOUS
 62
    7
 10
1750.472350230415
 20
3201.5506912442397
 11
1748.472350230415
 21
3199.5506912442397
  0
ARC
  8
_0-0_
  6
CONTINUOUS
 62
    7
 10
1322.222350230415
 20
2918.5506912442397
 40
8
 50
90
 51
180
  0
LINE
  8
_0-0_
  6
CONTINUOUS
 62
    7
 10
1314.2223502304148
 20
2900.5506912442393
 11
1314.2223502304148
 21
2918.5506912442397
  0
ARC
  8
_0-0_
  6
CONTINUOUS
 62
    7
 10
1322.222350230415
 20
2900.5506912442393
 40
8
 50
180
 51
270
  0
LINE
  8
_0-0_
  6
CONTINUOUS
 62
    7
 10
1361.7223502304148
 20
2926.5506912442415
 11
1322.222350230415
 21
2926.5506912442415
  0
ARC
  8
_0-0_
  6
CONTINUOUS
 62
    7
 10
1361.7223502304148
 20
2918.5506912442397
 40
8
 50
0
 51
90
  0
ARC
  8
_0-0_
  6
CONTINUOUS
 62
    7
 10
1391.7223502304148
 20
2918.5506912442397
 40
8
 50
90
 51
180
  0
ARC
  8
_0-0_
  6
CONTINUOUS
 62
    7
 10
1431.2223502304146
 20
2900.5506912442393
 40
8
 50
270
 51
0
  0
ARC
  8
_0-0_
  6
CONTINUOUS
 62
    7
 10
1461.2223502304146
 20
2900.5506912442393
 40
8
 50
180
 51
270
  0
ARC
  8
_0-0_
  6
CONTINUOUS
 62
    7
 10
1500.7223502304169
 20
2918.5506912442397
 40
8
 50
0
 51
90
  0
ARC
  8
_0-0_
  6
CONTINUOUS
 62
    7
 10
1530.7223502304169
 20
2918.5506912442397
 40
8
 50
90
 51
180
  0
ARC
  8
_0-0_
  6
CONTINUOUS
 62
    7
 10
1570.2223502304128
 20
2900.5506912442393
 40
8
 50
270
 51
0
  0
ARC
  8
_0-0_
  6
CONTINUOUS
 62
    7
 10
1600.2223502304128
 20
2900.5506912442393
 40
8
 50
180
 51
270
  0
ARC
  8
_0-0_
  6
CONTINUOUS
 62
    7
 10
1639.722350230415
 20
2918.5506912442397
 40
8
 50
0
 51
90
  0
ARC
  8
_0-0_
  6
CONTINUOUS
 62
    7
 10
1669.722350230415
 20
2918.5506912442397
 40
8
 50
90
 51
180
  0
ARC
  8
_0-0_
  6
CONTINUOUS
 62
    7
 10
1709.222350230415
 20
2900.5506912442393
 40
8
 50
270
 51
0
  0
ARC
  8
_0-0_
  6
CONTINUOUS
 62
    7
 10
1739.222350230415
 20
2900.5506912442393
 40
8
 50
180
 51
270
  0
LINE
  8
_0-0_
  6
CONTINUOUS
 62
    7
 10
1778.7223502304146
 20
2892.5506912442415
 11
1739.222350230415
 21
2892.5506912442415
  0
ARC
  8
_0-0_
  6
CONTINUOUS
 62
    7
 10
1778.7223502304146
 20
2900.5506912442393
 40
8
 50
270
 51
0
  0
LINE
  8
_0-0_
  6
CONTINUOUS
 62
    7
 10
1786.722350230415
 20
2918.5506912442397
 11
1786.722350230415
 21
2900.5506912442393
  0
ARC
  8
_0-0_
  6
CONTINUOUS
 62
    7
 10
1778.7223502304146
 20
2918.5506912442397
 40
8
 50
0
 51
90.000000000000028
  0
LINE
  8
_0-0_
  6
CONTINUOUS
 62
    7
 10
1739.222350230415
 20
2926.5506912442415
 11
1778.7223502304146
 21
2926.5506912442415
  0
LINE
  8
_0-0_
  6
CONTINUOUS
 62
    7
 10
1731.2223502304146
 20
2918.5506912442397
 11
1731.2223502304146
 21
2900.5506912442393
  0
LINE
  8
_0-0_
  6
CONTINUOUS
 62
    7
 10
1739.222350230415
 20
2926.5506912442415
 11
1731.2223502304146
 21
2918.5506912442397
  0
LINE
  8
_0-0_
  6
CONTINUOUS
 62
    7
 10
1709.222350230415
 20
2926.5506912442415
 11
1669.722350230415
 21
2926.5506912442415
  0
LINE
  8
_0-0_
  6
CONTINUOUS
 62
    7
 10
1717.222350230415
 20
2918.5506912442397
 11
1717.222350230415
 21
2900.5506912442393
  0
LINE
  8
_0-0_
  6
CONTINUOUS
 62
    7
 10
1709.222350230415
 20
2926.5506912442415
 11
1717.222350230415
 21
2918.5506912442397
  0
LINE
  8
_0-0_
  6
CONTINUOUS
 62
    7
 10
1661.722350230415
 20
2900.5506912442393
 11
1661.722350230415
 21
2918.5506912442397
  0
LINE
  8
_0-0_
  6
CONTINUOUS
 62
    7
 10
1669.722350230415
 20
2892.5506912442415
 11
1709.222350230415
 21
2892.5506912442415
  0
LINE
  8
_0-0_
  6
CONTINUOUS
 62
    7
 10
1661.722350230415
 20
2900.5506912442393
 11
1669.722350230415
 21
2892.5506912442415
  0
LINE
  8
_0-0_
  6
CONTINUOUS
 62
    7
 10
1647.7223502304132
 20
2900.5506912442393
 11
1647.7223502304132
 21
2918.5506912442397
  0
LINE
  8
_0-0_
  6
CONTINUOUS
 62
    7
 10
1639.722350230415
 20
2892.5506912442415
 11
1600.2223502304128
 21
2892.5506912442415
  0
LINE
  8
_0-0_
  6
CONTINUOUS
 62
    7
 10
1647.7223502304132
 20
2900.5506912442393
 11
1639.722350230415
 21
2892.5506912442415
  0
LINE
  8
_0-0_
  6
CONTINUOUS
 62
    7
 10
1592.222350230415
 20
2918.5506912442397
 11
1592.222350230415
 21
2900.5506912442393
  0
LINE
  8
_0-0_
  6
CONTINUOUS
 62
    7
 10
1600.2223502304128
 20
2926.5506912442415
 11
1639.722350230415
 21
2926.5506912442415
  0
LINE
  8
_0-0_
  6
CONTINUOUS
 62
    7
 10
1592.222350230415
 20
2918.5506912442397
 11
1600.2223502304128
 21
2926.5506912442415
  0
LINE
  8
_0-0_
  6
CONTINUOUS
 62
    7
 10
1570.2223502304128
 20
2926.5506912442415
 11
1530.7223502304169
 21
2926.5506912442415
  0
LINE
  8
_0-0_
  6
CONTINUOUS
 62
    7
 10
1578.2223502304169
 20
2918.5506912442397
 11
1578.2223502304169
 21
2900.5506912442393
  0
LINE
  8
_0-0_
  6
CONTINUOUS
 62
    7
 10
1570.2223502304128
 20
2926.5506912442415
 11
1578.2223502304169
 21
2918.5506912442397
  0
LINE
  8
_0-0_
  6
CONTINUOUS
 62
    7
 10
1522.7223502304128
 20
2900.5506912442393
 11
1522.7223502304128
 21
2918.5506912442397
  0
LINE
  8
_0-0_
  6
CONTINUOUS
 62
    7
 10
1530.7223502304169
 20
2892.5506912442415
 11
1570.2223502304128
 21
2892.5506912442415
  0
LINE
  8
_0-0_
  6
CONTINUOUS
 62
    7
 10
1522.7223502304128
 20
2900.5506912442393
 11
1530.7223502304169
 21
2892.5506912442415
  0
LINE
  8
_0-0_
  6
CONTINUOUS
 62
    7
 10
1508.7223502304146
 20
2900.5506912442393
 11
1508.7223502304146
 21
2918.5506912442397
  0
LINE
  8
_0-0_
  6
CONTINUOUS
 62
    7
 10
1500.7223502304169
 20
2892.5506912442415
 11
1461.2223502304146
 21
2892.5506912442415
  0
LINE
  8
_0-0_
  6
CONTINUOUS
 62
    7
 10
1508.7223502304146
 20
2900.5506912442393
 11
1500.7223502304169
 21
2892.5506912442415
  0
LINE
  8
_0-0_
  6
CONTINUOUS
 62
    7
 10
1461.2223502304146
 20
2926.5506912442415
 11
1500.7223502304169
 21
2926.5506912442415
  0
LINE
  8
_0-0_
  6
CONTINUOUS
 62
    7
 10
1453.2223502304169
 20
2918.5506912442397
 11
1453.2223502304169
 21
2900.5506912442393
  0
LINE
  8
_0-0_
  6
CONTINUOUS
 62
    7
 10
1461.2223502304146
 20
2926.5506912442415
 11
1453.2223502304169
 21
2918.5506912442397
  0
LINE
  8
_0-0_
  6
CONTINUOUS
 62
    7
 10
1439.2223502304148
 20
2918.5506912442397
 11
1439.2223502304148
 21
2900.5506912442393
  0
LINE
  8
_0-0_
  6
CONTINUOUS
 62
    7
 10
1431.2223502304146
 20
2926.5506912442415
 11
1391.7223502304148
 21
2926.5506912442415
  0
LINE
  8
_0-0_
  6
CONTINUOUS
 62
    7
 10
1439.2223502304148
 20
2918.5506912442397
 11
1431.2223502304146
 21
2926.5506912442415
  0
LINE
  8
_0-0_
  6
CONTINUOUS
 62
    7
 10
1383.7223502304146
 20
2900.5506912442393
 11
1383.7223502304146
 21
2918.5506912442397
  0
LINE
  8
_0-0_
  6
CONTINUOUS
 62
    7
 10
1391.7223502304148
 20
2892.5506912442415
 11
1431.2223502304146
 21
2892.5506912442415
  0
LINE
  8
_0-0_
  6
CONTINUOUS
 62
    7
 10
1383.7223502304146
 20
2900.5506912442393
 11
1391.7223502304148
 21
2892.5506912442415
  0
LINE
  8
_0-0_
  6
CONTINUOUS
 62
    7
 10
1369.722350230415
 20
2900.5506912442393
 11
1369.722350230415
 21
2918.5506912442397
  0
LINE
  8
_0-0_
  6
CONTINUOUS
 62
    7
 10
1361.7223502304148
 20
2892.5506912442415
 11
1322.222350230415
 21
2892.5506912442415
  0
LINE
  8
_0-0_
  6
CONTINUOUS
 62
    7
 10
1369.722350230415
 20
2900.5506912442393
 11
1361.7223502304148
 21
2892.5506912442415
  0
LINE
  8
_0-0_
  6
CENTER1
 62
    7
 10
1585.2223502304128
 20
2919.5506912442397
 11
1585.2223502304128
 21
2933.5506912442397
  0
LINE
  8
_0-0_
  6
CENTER1
 62
    7
 10
1592.7223502304128
 20
2926.5506912442415
 11
1577.7223502304128
 21
2926.5506912442415
  0
CIRCLE
  8
_0-0_
  6
CONTINUOUS
 62
    7
 10
1585.2223494255702
 20
2926.5506957431494
 40
1.3
  0
LINE
  8
_0-0_
  6
CENTER1
 62
    7
 10
1654.722350230415
 20
2885.5506912442393
 11
1654.722350230415
 21
2899.5506912442397
  0
LINE
  8
_0-0_
  6
CENTER1
 62
    7
 10
1662.222350230415
 20
2892.5506912442415
 11
1647.222350230415
 21
2892.5506912442415
  0
CIRCLE
  8
_0-0_
  6
CONTINUOUS
 62
    7
 10
1654.7223467255189
 20
2892.5506922530058
 40
1.3
  0
LINE
  8
_0-0_
  6
CENTER1
 62
    7
 10
1724.222350230415
 20
2919.5506912442397
 11
1724.222350230415
 21
2933.5506912442397
  0
LINE
  8
_0-0_
  6
CENTER1
 62
    7
 10
1731.722350230415
 20
2926.5506912442415
 11
1716.722350230415
 21
2926.5506912442415
  0
CIRCLE
  8
_0-0_
  6
CONTINUOUS
 62
    7
 10
1724.2223494255722
 20
2926.5506957431494
 40
1.3
  0
LINE
  8
_0-0_
  6
CENTER1
 62
    7
 10
1446.2223502304146
 20
2919.5506912442397
 11
1446.2223502304146
 21
2933.5506912442397
  0
LINE
  8
_0-0_
  6
CENTER1
 62
    7
 10
1453.7223502304146
 20
2926.5506912442415
 11
1438.7223502304146
 21
2926.5506912442415
  0
CIRCLE
  8
_0-0_
  6
CONTINUOUS
 62
    7
 10
1446.2223494255722
 20
2926.5506957431494
 40
1.3
  0
LINE
  8
_0-0_
  6
CENTER1
 62
    7
 10
1515.7223502304169
 20
2885.5506912442393
 11
1515.7223502304169
 21
2899.5506912442397
  0
CIRCLE
  8
_0-0_
  6
CONTINUOUS
 62
    7
 10
1515.7223467255187
 20
2892.5506922530058
 40
1.3
  0
LINE
  8
_0-0_
  6
CENTER1
 62
    7
 10
1523.2223502304169
 20
2892.5506912442415
 11
1508.2223502304169
 21
2892.5506912442415
  0
LINE
  8
_0-0_
  6
CONTINUOUS
 62
    7
 10
1800.472350230415
 20
2937.5506912442397
 11
1798.472350230415
 21
2939.5506912442397
  0
LINE
  8
_0-0_
  6
CONTINUOUS
 62
    7
 10
1302.4723502304146
 20
2939.5506912442397
 11
1798.472350230415
 21
2939.5506912442397
  0
LINE
  8
_0-0_
  6
CONTINUOUS
 62
    7
 10
1302.4723502304146
 20
2939.5506912442397
 11
1300.4723502304148
 21
2937.5506912442397
  0
LINE
  8
_0-0_
  6
CONTINUOUS
 62
    7
 10
1300.4723502304148
 20
2881.5506912442397
 11
1300.4723502304148
 21
2937.5506912442397
  0
LINE
  8
_0-0_
  6
CONTINUOUS
 62
    7
 10
1300.4723502304148
 20
2881.5506912442397
 11
1302.4723502304146
 21
2879.5506912442397
  0
LINE
  8
_0-0_
  6
CONTINUOUS
 62
    7
 10
1800.472350230415
 20
2881.5506912442397
 11
1800.472350230415
 21
2937.5506912442397
  0
LINE
  8
_0-0_
  6
CONTINUOUS
 62
    7
 10
1798.472350230415
 20
2879.5506912442397
 11
1302.4723502304146
 21
2879.5506912442397
  0
LINE
  8
_0-0_
  6
CONTINUOUS
 62
    7
 10
1800.472350230415
 20
2881.5506912442397
 11
1798.472350230415
 21
2879.5506912442397
  0
LINE
  8
_0-0_
  6
CENTER1
 62
    7
 10
1376.7223502304164
 20
2885.5506912442393
 11
1376.7223502304164
 21
2899.5506912442397
  0
CIRCLE
  8
_0-0_
  6
CONTINUOUS
 62
    7
 10
1376.7223467255189
 20
2892.5506922530058
 40
1.3
  0
LINE
  8
_0-0_
  6
CENTER1
 62
    7
 10
1384.2223502304164
 20
2892.5506912442415
 11
1369.2223502304164
 21
2892.5506912442415
  0
LINE
  8
_0-0_
  6
CENTER1
 62
    7
 10
1520.4723502304148
 20
2606.5506912442397
 11
1534.4723502304146
 21
2606.5506912442397
  0
LINE
  8
_0-0_
  6
CONTINUOUS
 62
    7
 10
1300.4723502304148
 20
2617.5506912442397
 11
1300.4723502304148
 21
2561.5506912442397
  0
LINE
  8
_0-0_
  6
CONTINUOUS
 62
    7
 10
1900.472350230415
 20
2617.5506912442397
 11
1900.472350230415
 21
2561.5506912442397
  0
ARC
  8
_0-0_
  6
CONTINUOUS
 62
    7
 10
1323.472350230415
 20
2598.5506912442397
 40
8
 50
90
 51
180
  0
LINE
  8
_0-0_
  6
CONTINUOUS
 62
    7
 10
1315.4723502304148
 20
2580.5506912442393
 11
1315.4723502304148
 21
2598.5506912442397
  0
ARC
  8
_0-0_
  6
CONTINUOUS
 62
    7
 10
1323.472350230415
 20
2580.5506912442393
 40
8
 50
180
 51
270
  0
LINE
  8
_0-0_
  6
CONTINUOUS
 62
    7
 10
1366.472350230415
 20
2572.5506912442397
 11
1323.472350230415
 21
2572.5506912442397
  0
ARC
  8
_0-0_
  6
CONTINUOUS
 62
    7
 10
1366.472350230415
 20
2580.5506912442393
 40
8
 50
270
 51
0
  0
ARC
  8
_0-0_
  6
CONTINUOUS
 62
    7
 10
1396.472350230415
 20
2580.5506912442393
 40
8
 50
180
 51
270
  0
ARC
  8
_0-0_
  6
CONTINUOUS
 62
    7
 10
1439.4723502304146
 20
2598.5506912442397
 40
8
 50
0
 51
90
  0
ARC
  8
_0-0_
  6
CONTINUOUS
 62
    7
 10
1469.4723502304146
 20
2598.5506912442397
 40
8
 50
90
 51
180
  0
ARC
  8
_0-0_
  6
CONTINUOUS
 62
    7
 10
1512.4723502304146
 20
2580.5506912442393
 40
8
 50
270
 51
0
  0
ARC
  8
_0-0_
  6
CONTINUOUS
 62
    7
 10
1542.4723502304146
 20
2580.5506912442393
 40
8
 50
180
 51
270
  0
ARC
  8
_0-0_
  6
CONTINUOUS
 62
    7
 10
1585.4723502304148
 20
2598.5506912442397
 40
8
 50
0
 51
90
  0
ARC
  8
_0-0_
  6
CONTINUOUS
 62
    7
 10
1615.4723502304148
 20
2598.5506912442397
 40
8
 50
90
 51
180
  0
ARC
  8
_0-0_
  6
CONTINUOUS
 62
    7
 10
1658.472350230415
 20
2580.5506912442393
 40
8
 50
270
 51
0
  0
ARC
  8
_0-0_
  6
CONTINUOUS
 62
    7
 10
1688.472350230415
 20
2580.5506912442393
 40
8
 50
180
 51
270
  0
ARC
  8
_0-0_
  6
CONTINUOUS
 62
    7
 10
1731.472350230415
 20
2598.5506912442397
 40
8
 50
0
 51
90
  0
ARC
  8
_0-0_
  6
CONTINUOUS
 62
    7
 10
1761.472350230415
 20
2598.5506912442397
 40
8
 50
90
 51
180
  0
ARC
  8
_0-0_
  6
CONTINUOUS
 62
    7
 10
1804.472350230415
 20
2580.5506912442393
 40
8
 50
270
 51
0
  0
ARC
  8
_0-0_
  6
CONTINUOUS
 62
    7
 10
1834.472350230415
 20
2580.5506912442393
 40
8
 50
180
 51
270
  0
LINE
  8
_0-0_
  6
CONTINUOUS
 62
    7
 10
1877.4723502304146
 20
2572.5506912442397
 11
1834.472350230415
 21
2572.5506912442397
  0
ARC
  8
_0-0_
  6
CONTINUOUS
 62
    7
 10
1877.4723502304146
 20
2580.5506912442393
 40
8
 50
270
 51
0
  0
LINE
  8
_0-0_
  6
CONTINUOUS
 62
    7
 10
1885.472350230415
 20
2598.5506912442397
 11
1885.472350230415
 21
2580.5506912442393
  0
ARC
  8
_0-0_
  6
CONTINUOUS
 62
    7
 10
1877.4723502304146
 20
2598.5506912442397
 40
8
 50
0
 51
90.000000000000028
  0
LINE
  8
_0-0_
  6
CONTINUOUS
 62
    7
 10
1834.472350230415
 20
2606.5506912442397
 11
1877.4723502304146
 21
2606.5506912442397
  0
LINE
  8
_0-0_
  6
CONTINUOUS
 62
    7
 10
1826.472350230415
 20
2598.5506912442397
 11
1826.472350230415
 21
2580.5506912442393
  0
LINE
  8
_0-0_
  6
CONTINUOUS
 62
    7
 10
1834.472350230415
 20
2606.5506912442397
 11
1826.472350230415
 21
2598.5506912442397
  0
LINE
  8
_0-0_
  6
CONTINUOUS
 62
    7
 10
1804.472350230415
 20
2606.5506912442397
 11
1761.472350230415
 21
2606.5506912442397
  0
LINE
  8
_0-0_
  6
CONTINUOUS
 62
    7
 10
1812.4723502304146
 20
2598.5506912442397
 11
1812.4723502304146
 21
2580.5506912442393
  0
LINE
  8
_0-0_
  6
CONTINUOUS
 62
    7
 10
1804.472350230415
 20
2606.5506912442397
 11
1812.4723502304146
 21
2598.5506912442397
  0
LINE
  8
_0-0_
  6
CONTINUOUS
 62
    7
 10
1753.472350230415
 20
2580.5506912442393
 11
1753.472350230415
 21
2598.5506912442397
  0
LINE
  8
_0-0_
  6
CONTINUOUS
 62
    7
 10
1761.472350230415
 20
2572.5506912442397
 11
1804.472350230415
 21
2572.5506912442397
  0
LINE
  8
_0-0_
  6
CONTINUOUS
 62
    7
 10
1753.472350230415
 20
2580.5506912442393
 11
1761.472350230415
 21
2572.5506912442397
  0
LINE
  8
_0-0_
  6
CONTINUOUS
 62
    7
 10
1739.472350230415
 20
2580.5506912442393
 11
1739.472350230415
 21
2598.5506912442397
  0
LINE
  8
_0-0_
  6
CONTINUOUS
 62
    7
 10
1731.472350230415
 20
2572.5506912442397
 11
1688.472350230415
 21
2572.5506912442397
  0
LINE
  8
_0-0_
  6
CONTINUOUS
 62
    7
 10
1739.472350230415
 20
2580.5506912442393
 11
1731.472350230415
 21
2572.5506912442397
  0
LINE
  8
_0-0_
  6
CONTINUOUS
 62
    7
 10
1688.472350230415
 20
2606.5506912442397
 11
1731.472350230415
 21
2606.5506912442397
  0
LINE
  8
_0-0_
  6
CONTINUOUS
 62
    7
 10
1680.472350230415
 20
2598.5506912442397
 11
1680.472350230415
 21
2580.5506912442393
  0
LINE
  8
_0-0_
  6
CONTINUOUS
 62
    7
 10
1688.472350230415
 20
2606.5506912442397
 11
1680.472350230415
 21
2598.5506912442397
  0
LINE
  8
_0-0_
  6
CONTINUOUS
 62
    7
 10
1658.472350230415
 20
2606.5506912442397
 11
1615.4723502304148
 21
2606.5506912442397
  0
LINE
  8
_0-0_
  6
CONTINUOUS
 62
    7
 10
1666.472350230415
 20
2598.5506912442397
 11
1666.472350230415
 21
2580.5506912442393
  0
LINE
  8
_0-0_
  6
CONTINUOUS
 62
    7
 10
1658.472350230415
 20
2606.5506912442397
 11
1666.472350230415
 21
2598.5506912442397
  0
LINE
  8
_0-0_
  6
CONTINUOUS
 62
    7
 10
1607.4723502304146
 20
2580.5506912442393
 11
1607.4723502304146
 21
2598.5506912442397
  0
LINE
  8
_0-0_
  6
CONTINUOUS
 62
    7
 10
1615.4723502304148
 20
2572.5506912442397
 11
1658.472350230415
 21
2572.5506912442397
  0
LINE
  8
_0-0_
  6
CONTINUOUS
 62
    7
 10
1607.4723502304146
 20
2580.5506912442393
 11
1615.4723502304148
 21
2572.5506912442397
  0
LINE
  8
_0-0_
  6
CONTINUOUS
 62
    7
 10
1593.472350230415
 20
2580.5506912442393
 11
1593.472350230415
 21
2598.5506912442397
  0
LINE
  8
_0-0_
  6
CONTINUOUS
 62
    7
 10
1585.4723502304148
 20
2572.5506912442397
 11
1542.4723502304146
 21
2572.5506912442397
  0
LINE
  8
_0-0_
  6
CONTINUOUS
 62
    7
 10
1593.472350230415
 20
2580.5506912442393
 11
1585.4723502304148
 21
2572.5506912442397
  0
LINE
  8
_0-0_
  6
CONTINUOUS
 62
    7
 10
1542.4723502304146
 20
2606.5506912442397
 11
1585.4723502304148
 21
2606.5506912442397
  0
LINE
  8
_0-0_
  6
CONTINUOUS
 62
    7
 10
1534.4723502304146
 20
2598.5506912442397
 11
1534.4723502304146
 21
2580.5506912442393
  0
LINE
  8
_0-0_
  6
CONTINUOUS
 62
    7
 10
1542.4723502304146
 20
2606.5506912442397
 11
1534.4723502304146
 21
2598.5506912442397
  0
LINE
  8
_0-0_
  6
CONTINUOUS
 62
    7
 10
1520.4723502304148
 20
2598.5506912442397
 11
1520.4723502304148
 21
2580.5506912442393
  0
LINE
  8
_0-0_
  6
CONTINUOUS
 62
    7
 10
1512.4723502304146
 20
2606.5506912442397
 11
1469.4723502304146
 21
2606.5506912442397
  0
LINE
  8
_0-0_
  6
CONTINUOUS
 62
    7
 10
1520.4723502304148
 20
2598.5506912442397
 11
1512.4723502304146
 21
2606.5506912442397
  0
LINE
  8
_0-0_
  6
CONTINUOUS
 62
    7
 10
1461.472350230415
 20
2580.5506912442393
 11
1461.472350230415
 21
2598.5506912442397
  0
LINE
  8
_0-0_
  6
CONTINUOUS
 62
    7
 10
1461.472350230415
 20
2580.5506912442393
 11
1469.4723502304146
 21
2572.5506912442397
  0
LINE
  8
_0-0_
  6
CONTINUOUS
 62
    7
 10
1447.4723502304146
 20
2580.5506912442393
 11
1447.4723502304146
 21
2598.5506912442397
  0
LINE
  8
_0-0_
  6
CONTINUOUS
 62
    7
 10
1439.4723502304146
 20
2572.5506912442397
 11
1396.472350230415
 21
2572.5506912442397
  0
LINE
  8
_0-0_
  6
CONTINUOUS
 62
    7
 10
1447.4723502304146
 20
2580.5506912442393
 11
1439.4723502304146
 21
2572.5506912442397
  0
LINE
  8
_0-0_
  6
CONTINUOUS
 62
    7
 10
1388.472350230415
 20
2598.5506912442397
 11
1388.472350230415
 21
2580.5506912442393
  0
LINE
  8
_0-0_
  6
CONTINUOUS
 62
    7
 10
1396.472350230415
 20
2606.5506912442397
 11
1388.472350230415
 21
2598.5506912442397
  0
LINE
  8
_0-0_
  6
CONTINUOUS
 62
    7
 10
1374.4723502304146
 20
2598.5506912442397
 11
1374.4723502304146
 21
2580.5506912442393
  0
LINE
  8
_0-0_
  6
CONTINUOUS
 62
    7
 10
1366.472350230415
 20
2606.5506912442397
 11
1323.472350230415
 21
2606.5506912442397
  0
LINE
  8
_0-0_
  6
CONTINUOUS
 62
    7
 10
1374.4723502304146
 20
2598.5506912442397
 11
1366.472350230415
 21
2606.5506912442397
  0
LINE
  8
_0-0_
  6
CONTINUOUS
 62
    7
 10
1396.472350230415
 20
2606.5506912442397
 11
1439.4723502304146
 21
2606.5506912442397
  0
LINE
  8
_0-0_
  6
CENTER1
 62
    7
 10
1381.472350230415
 20
2614.5506912442397
 11
1381.472350230415
 21
2598.5506912442397
  0
LINE
  8
_0-0_
  6
CONTINUOUS
 62
    7
 10
1469.4723502304146
 20
2572.5506912442397
 11
1512.4723502304146
 21
2572.5506912442397
  0
LINE
  8
_0-0_
  6
CENTER1
 62
    7
 10
1454.4723502304146
 20
2580.5506912442393
 11
1454.4723502304146
 21
2564.5506912442397
  0
LINE
  8
_0-0_
  6
CENTER1
 62
    7
 10
1447.4723502304146
 20
2572.5506912442397
 11
1461.472350230415
 21
2572.5506912442397
  0
LINE
  8
_0-0_
  6
CENTER1
 62
    7
 10
1374.4723502304146
 20
2606.5506912442397
 11
1388.472350230415
 21
2606.5506912442397
  0
CIRCLE
  8
_0-0_
  6
CONTINUOUS
 62
    7
 10
1381.4723461776362
 20
2606.550697418766
 40
1.3
  0
CIRCLE
  8
_0-0_
  6
CONTINUOUS
 62
    7
 10
1454.4723541022893
 20
2572.5506982365455
 40
1.3
  0
LINE
  8
_0-0_
  6
CENTER1
 62
    7
 10
1600.4723502304148
 20
2580.5506912442393
 11
1600.4723502304148
 21
2564.5506912442397
  0
LINE
  8
_0-0_
  6
CENTER1
 62
    7
 10
1593.472350230415
 20
2572.5506912442397
 11
1607.4723502304146
 21
2572.5506912442397
  0
CIRCLE
  8
_0-0_
  6
CONTINUOUS
 62
    7
 10
1600.4723541022895
 20
2572.5506982365455
 40
1.3
  0
LINE
  8
_0-0_
  6
CENTER1
 62
    7
 10
1673.472350230415
 20
2614.5506912442397
 11
1673.472350230415
 21
2598.5506912442397
  0
LINE
  8
_0-0_
  6
CENTER1
 62
    7
 10
1666.472350230415
 20
2606.5506912442397
 11
1680.472350230415
 21
2606.5506912442397
  0
CIRCLE
  8
_0-0_
  6
CONTINUOUS
 62
    7
 10
1673.4723461776362
 20
2606.550697418766
 40
1.3
  0
LINE
  8
_0-0_
  6
CENTER1
 62
    7
 10
1746.472350230415
 20
2580.5506912442393
 11
1746.472350230415
 21
2564.5506912442397
  0
LINE
  8
_0-0_
  6
CENTER1
 62
    7
 10
1739.472350230415
 20
2572.5506912442397
 11
1753.472350230415
 21
2572.5506912442397
  0
CIRCLE
  8
_0-0_
  6
CONTINUOUS
 62
    7
 10
1746.4723541022895
 20
2572.5506982365455
 40
1.3
  0
LINE
  8
_0-0_
  6
CENTER1
 62
    7
 10
1819.472350230415
 20
2614.5506912442397
 11
1819.472350230415
 21
2598.5506912442397
  0
LINE
  8
_0-0_
  6
CENTER1
 62
    7
 10
1812.4723502304146
 20
2606.5506912442397
 11
1826.472350230415
 21
2606.5506912442397
  0
CIRCLE
  8
_0-0_
  6
CONTINUOUS
 62
    7
 10
1819.4723461776357
 20
2606.550697418766
 40
1.3
  0
CIRCLE
  8
_0-0_
  6
CONTINUOUS
 62
    7
 10
1527.4723463580567
 20
2606.5506934821951
 40
1.3
  0
LINE
  8
_0-0_
  6
CENTER1
 62
    7
 10
1527.4723502304146
 20
2614.5506912442397
 11
1527.4723502304146
 21
2598.5506912442397
  0
LINE
  8
_0-0_
  6
CONTINUOUS
 62
    7
 10
1300.4723502304148
 20
2617.5506912442397
 11
1302.4723502304146
 21
2619.5506912442397
  0
LINE
  8
_0-0_
  6
CONTINUOUS
 62
    7
 10
1300.4723502304148
 20
2561.5506912442397
 11
1302.4723502304146
 21
2559.5506912442397
  0
LINE
  8
_0-0_
  6
CONTINUOUS
 62
    7
 10
1898.472350230415
 20
2619.5506912442397
 11
1302.4723502304146
 21
2619.5506912442397
  0
LINE
  8
_0-0_
  6
CONTINUOUS
 62
    7
 10
1898.472350230415
 20
2619.5506912442397
 11
1900.472350230415
 21
2617.5506912442397
  0
LINE
  8
_0-0_
  6
CONTINUOUS
 62
    7
 10
1898.472350230415
 20
2559.5506912442397
 11
1302.4723502304146
 21
2559.5506912442397
  0
LINE
  8
_0-0_
  6
CONTINUOUS
 62
    7
 10
1900.472350230415
 20
2561.5506912442397
 11
1898.472350230415
 21
2559.5506912442397
  0
LINE
  8
_0-9_
  6
CONTINUOUS
 62
    7
 10
1270.4723502304148
 20
3259.5506912442397
 11
1270.4723502304148
 21
3199.5506912442397
  0
POINT
  8
_0-9_
 62
    7
 10
1270.4723502304148
 20
3259.5506912442397
  0
POINT
  8
_0-9_
 62
    7
 10
1270.4723502304148
 20
3199.5506912442397
  0
LINE
  8
_0-9_
  6
CONTINUOUS
 62
    7
 10
1270.4723502304148
 20
3259.5506912442397
 11
1280.4723502304148
 21
3259.5506912442397
  0
LINE
  8
_0-9_
  6
CONTINUOUS
 62
    7
 10
1270.4723502304148
 20
3199.5506912442397
 11
1280.4723502304148
 21
3199.5506912442397
  0
TEXT
  8
_0-9_
 62
    7
 10
1269.9723502304146
 20
3221.4256912442397
 40
15
 41
1
 50
90
  1
60
  0
LINE
  8
_0-9_
  6
CONTINUOUS
 62
    7
 10
1270.4723502304148
 20
2939.5506912442397
 11
1270.4723502304148
 21
2879.5506912442397
  0
POINT
  8
_0-9_
 62
    7
 10
1270.4723502304148
 20
2939.5506912442397
  0
POINT
  8
_0-9_
 62
    7
 10
1270.4723502304148
 20
2879.5506912442397
  0
LINE
  8
_0-9_
  6
CONTINUOUS
 62
    7
 10
1270.4723502304148
 20
2939.5506912442397
 11
1280.4723502304148
 21
2939.5506912442397
  0
LINE
  8
_0-9_
  6
CONTINUOUS
 62
    7
 10
1270.4723502304148
 20
2879.5506912442397
 11
1280.4723502304148
 21
2879.5506912442397
  0
TEXT
  8
_0-9_
 62
    7
 10
1269.9723502304146
 20
2901.4256912442397
 40
15
 41
1
 50
90
  1
60
  0
LINE
  8
_0-9_
  6
CONTINUOUS
 62
    7
 10
1270.4723502304148
 20
2619.5506912442397
 11
1270.4723502304148
 21
2559.5506912442397
  0
POINT
  8
_0-9_
 62
    7
 10
1270.4723502304148
 20
2619.5506912442397
  0
POINT
  8
_0-9_
 62
    7
 10
1270.4723502304148
 20
2559.5506912442397
  0
LINE
  8
_0-9_
  6
CONTINUOUS
 62
    7
 10
1270.4723502304148
 20
2619.5506912442397
 11
1280.4723502304148
 21
2619.5506912442397
  0
LINE
  8
_0-9_
  6
CONTINUOUS
 62
    7
 10
1270.4723502304148
 20
2559.5506912442397
 11
1280.4723502304148
 21
2559.5506912442397
  0
TEXT
  8
_0-9_
 62
    7
 10
1269.9723502304146
 20
2581.4256912442397
 40
15
 41
1
 50
90
  1
60
  0
LINE
  8
_0-9_
  6
CONTINUOUS
 62
    7
 10
1300.4723502304148
 20
3169.5506912442397
 11
1750.472350230415
 21
3169.5506912442397
  0
POINT
  8
_0-9_
 62
    7
 10
1300.4723502304148
 20
3169.5506912442397
  0
POINT
  8
_0-9_
 62
    7
 10
1750.472350230415
 20
3169.5506912442397
  0
LINE
  8
_0-9_
  6
CONTINUOUS
 62
    7
 10
1300.4723502304148
 20
3169.5506912442397
 11
1300.4723502304148
 21
3179.5506912442397
  0
LINE
  8
_0-9_
  6
CONTINUOUS
 62
    7
 10
1750.472350230415
 20
3169.5506912442397
 11
1750.472350230415
 21
3179.5506912442397
  0
TEXT
  8
_0-9_
 62
    7
 10
1512.9723502304148
 20
3170.0506912442397
 40
15
 41
1
 50
0
  1
450
  0
LINE
  8
_0-9_
  6
CONTINUOUS
 62
    7
 10
1300.4723502304148
 20
2849.5506912442397
 11
1800.472350230415
 21
2849.5506912442397
  0
POINT
  8
_0-9_
 62
    7
 10
1300.4723502304148
 20
2849.5506912442397
  0
POINT
  8
_0-9_
 62
    7
 10
1800.472350230415
 20
2849.5506912442397
  0
LINE
  8
_0-9_
  6
CONTINUOUS
 62
    7
 10
1300.4723502304148
 20
2849.5506912442397
 11
1300.4723502304148
 21
2859.5506912442397
  0
LINE
  8
_0-9_
  6
CONTINUOUS
 62
    7
 10
1800.472350230415
 20
2849.5506912442397
 11
1800.472350230415
 21
2859.5506912442397
  0
TEXT
  8
_0-9_
 62
    7
 10
1537.9723502304148
 20
2850.0506912442397
 40
15
 41
1
 50
0
  1
500
  0
LINE
  8
_0-9_
  6
CONTINUOUS
 62
    7
 10
1300.4723502304148
 20
2529.5506912442397
 11
1900.472350230415
 21
2529.5506912442397
  0
POINT
  8
_0-9_
 62
    7
 10
1300.4723502304148
 20
2529.5506912442397
  0
POINT
  8
_0-9_
 62
    7
 10
1900.472350230415
 20
2529.5506912442397
  0
LINE
  8
_0-9_
  6
CONTINUOUS
 62
    7
 10
1300.4723502304148
 20
2529.5506912442397
 11
1300.4723502304148
 21
2539.5506912442397
  0
LINE
  8
_0-9_
  6
CONTINUOUS
 62
    7
 10
1900.472350230415
 20
2529.5506912442397
 11
1900.472350230415
 21
2539.5506912442397
  0
TEXT
  8
_0-9_
 62
    7
 10
1587.9723502304148
 20
2530.0506912442397
 40
15
 41
1
 50
0
  1
600
  0
TEXT
  8
_1-b_
 62
    7
 10
2190.6823662070283
 20
2725.3729203810208
 40
17.5
 41
1
 50
0
  1
ＭＮＬＫ－７５６０Ｓ７Ｋ
  0
LINE
  8
_0-0_
  6
CENTER1
 62
    7
 10
2554.2723502304148
 20
2580.5506912442393
 11
2554.2723502304148
 21
2564.8878860675932
  0
LINE
  8
_0-0_
  6
CENTER1
 62
    7
 10
2546.7723502304148
 20
2572.5506912442393
 11
2561.7723502304148
 21
2572.5506912442393
  0
LINE
  8
_0-0_
  6
CENTER1
 62
    7
 10
2481.1723502304148
 20
2627.5506912442393
 11
2481.1723502304148
 21
2611.5506912442397
  0
LINE
  8
_0-0_
  6
CENTER1
 62
    7
 10
2473.6723502304148
 20
2619.5506912442397
 11
2488.6723502304148
 21
2619.5506912442397
  0
CIRCLE
  8
_0-0_
  6
CONTINUOUS
 62
    7
 10
2481.1723455136598
 20
2619.5507004435594
 40
1.3
  0
CIRCLE
  8
_0-0_
  6
CONTINUOUS
 62
    7
 10
2554.2723465087847
 20
2572.5506951765378
 40
1.3
  0
LINE
  8
_0-0_
  6
CENTER1
 62
    7
 10
2627.3723502304147
 20
2627.5506912442393
 11
2627.3723502304147
 21
2611.5506912442397
  0
LINE
  8
_0-0_
  6
CENTER1
 62
    7
 10
2619.8723502304147
 20
2619.5506912442397
 11
2634.8723502304147
 21
2619.5506912442397
  0
CIRCLE
  8
_0-0_
  6
CONTINUOUS
 62
    7
 10
2627.3723455136596
 20
2619.5507004435594
 40
1.3
  0
LINE
  8
_0-0_
  6
CENTER1
 62
    7
 10
2692.972350230415
 20
2572.5506912442393
 11
2707.972350230415
 21
2572.5506912442393
  0
LINE
  8
_0-0_
  6
CENTER1
 62
    7
 10
2700.472350230415
 20
2580.5506912442393
 11
2700.472350230415
 21
2564.8878860675932
  0
CIRCLE
  8
_0-0_
  6
CONTINUOUS
 62
    7
 10
2700.4723465087845
 20
2572.5506951765378
 40
1.3
  0
LINE
  8
_0-0_
  6
CENTER1
 62
    7
 10
2773.5723502304149
 20
2627.5506912442393
 11
2773.5723502304149
 21
2611.5506912442397
  0
LINE
  8
_0-0_
  6
CENTER1
 62
    7
 10
2766.0723502304149
 20
2619.5506912442397
 11
2781.0723502304149
 21
2619.5506912442397
  0
CIRCLE
  8
_0-0_
  6
CONTINUOUS
 62
    7
 10
2773.5723455136599
 20
2619.5507004435594
 40
1.3
  0
LINE
  8
_0-0_
  6
CENTER1
 62
    7
 10
2839.1723502304148
 20
2572.5506912442393
 11
2854.1723502304148
 21
2572.5506912442393
  0
LINE
  8
_0-0_
  6
CENTER1
 62
    7
 10
2846.6723502304148
 20
2580.5506912442393
 11
2846.6723502304148
 21
2564.8878860675932
  0
CIRCLE
  8
_0-0_
  6
CONTINUOUS
 62
    7
 10
2846.6723465087848
 20
2572.5506951765378
 40
1.3
  0
LINE
  8
_0-0_
  6
CENTER1
 62
    7
 10
2919.7723502304143
 20
2627.5506912442393
 11
2919.7723502304143
 21
2611.5506912442397
  0
LINE
  8
_0-0_
  6
CENTER1
 62
    7
 10
2912.2723502304143
 20
2619.5506912442397
 11
2927.2723502304143
 21
2619.5506912442397
  0
CIRCLE
  8
_0-0_
  6
CONTINUOUS
 62
    7
 10
2919.7723455136593
 20
2619.5507004435594
 40
1.3
  0
LINE
  8
_0-0_
  6
CONTINUOUS
 62
    7
 10
2403.472350230415
 20
2633.5506912442397
 11
2400.472350230415
 21
2630.5506912442393
  0
LINE
  8
_0-0_
  6
CONTINUOUS
 62
    7
 10
2997.4723502304146
 20
2633.5506912442397
 11
3000.472350230415
 21
2630.5506912442393
  0
LINE
  8
_0-0_
  6
CONTINUOUS
 62
    7
 10
2520.472350230415
 20
2633.5506912442397
 11
2500.472350230415
 21
2633.5506912442397
  0
LINE
  8
_0-0_
  6
CONTINUOUS
 62
    7
 10
2997.4723502304146
 20
2633.5506912442397
 11
2403.472350230415
 21
2633.5506912442397
  0
LINE
  8
_0-0_
  6
CONTINUOUS
 62
    7
 10
2400.472350230415
 20
2561.5506912442397
 11
2403.472350230415
 21
2558.5506912442397
  0
LINE
  8
_0-0_
  6
CONTINUOUS
 62
    7
 10
2997.4723502304146
 20
2558.5506912442397
 11
2403.472350230415
 21
2558.5506912442397
  0
LINE
  8
_0-0_
  6
CONTINUOUS
 62
    7
 10
3000.472350230415
 20
2561.5506912442397
 11
2997.4723502304146
 21
2558.5506912442397
  0
LINE
  8
_0-0_
  6
CONTINUOUS
 62
    7
 10
2520.472350230415
 20
2558.5506912442397
 11
2500.472350230415
 21
2558.5506912442397
  0
LINE
  8
_0-0_
  6
CONTINUOUS
 62
    7
 10
2400.472350230415
 20
2561.5506912442397
 11
2400.472350230415
 21
2630.5506912442393
  0
LINE
  8
_0-0_
  6
CONTINUOUS
 62
    7
 10
3000.472350230415
 20
2561.5506912442397
 11
3000.472350230415
 21
2630.5506912442393
  0
ARC
  8
_0-0_
  6
CONTINUOUS
 62
    7
 10
2423.5723502304149
 20
2610.5506912442393
 40
8
 50
90
 51
180
  0
ARC
  8
_0-0_
  6
CONTINUOUS
 62
    7
 10
2569.7723502304148
 20
2610.5506912442393
 40
8
 50
90
 51
180
  0
ARC
  8
_0-0_
  6
CONTINUOUS
 62
    7
 10
2684.972350230415
 20
2610.5506912442393
 40
8
 50
0
 51
90
  0
ARC
  8
_0-0_
  6
CONTINUOUS
 62
    7
 10
2715.972350230415
 20
2610.5506912442393
 40
8
 50
90
 51
180
  0
ARC
  8
_0-0_
  6
CONTINUOUS
 62
    7
 10
2831.1723502304148
 20
2610.5506912442393
 40
8
 50
0
 51
90
  0
ARC
  8
_0-0_
  6
CONTINUOUS
 62
    7
 10
2862.1723502304148
 20
2610.5506912442393
 40
8
 50
90
 51
180
  0
ARC
  8
_0-0_
  6
CONTINUOUS
 62
    7
 10
2977.3723502304147
 20
2610.5506912442393
 40
8
 50
0
 51
90
  0
LINE
  8
_0-0_
  6
CONTINUOUS
 62
    7
 10
2935.2723502304152
 20
2618.5506912442397
 11
2977.3723502304147
 21
2618.5506912442397
  0
LINE
  8
_0-0_
  6
CONTINUOUS
 62
    7
 10
2935.2723502304152
 20
2618.5506912442397
 11
2927.2723502304148
 21
2610.5506912442393
  0
LINE
  8
_0-0_
  6
CONTINUOUS
 62
    7
 10
2904.2723502304148
 20
2618.5506912442397
 11
2862.1723502304148
 21
2618.5506912442397
  0
LINE
  8
_0-0_
  6
CONTINUOUS
 62
    7
 10
2912.2723502304148
 20
2610.5506912442393
 11
2904.2723502304148
 21
2618.5506912442397
  0
LINE
  8
_0-0_
  6
CONTINUOUS
 62
    7
 10
2789.0723502304149
 20
2618.5506912442397
 11
2831.1723502304148
 21
2618.5506912442397
  0
LINE
  8
_0-0_
  6
CONTINUOUS
 62
    7
 10
2789.0723502304149
 20
2618.5506912442397
 11
2781.0723502304149
 21
2610.5506912442393
  0
LINE
  8
_0-0_
  6
CONTINUOUS
 62
    7
 10
2758.0723502304145
 20
2618.5506912442397
 11
2715.972350230415
 21
2618.5506912442397
  0
LINE
  8
_0-0_
  6
CONTINUOUS
 62
    7
 10
2758.0723502304145
 20
2618.5506912442397
 11
2766.0723502304149
 21
2610.5506912442393
  0
LINE
  8
_0-0_
  6
CONTINUOUS
 62
    7
 10
2642.8723502304147
 20
2618.5506912442397
 11
2684.972350230415
 21
2618.5506912442397
  0
LINE
  8
_0-0_
  6
CONTINUOUS
 62
    7
 10
2642.8723502304147
 20
2618.5506912442397
 11
2634.8723502304147
 21
2610.5506912442393
  0
LINE
  8
_0-0_
  6
CONTINUOUS
 62
    7
 10
2611.8723502304147
 20
2618.5506912442397
 11
2569.7723502304148
 21
2618.5506912442397
  0
LINE
  8
_0-0_
  6
CONTINUOUS
 62
    7
 10
2611.8723502304147
 20
2618.5506912442397
 11
2619.8723502304147
 21
2610.5506912442393
  0
LINE
  8
_0-0_
  6
CONTINUOUS
 62
    7
 10
2496.6723502304148
 20
2618.5506912442397
 11
2488.6723502304148
 21
2610.5506912442393
  0
LINE
  8
_0-0_
  6
CONTINUOUS
 62
    7
 10
2465.6723502304148
 20
2618.5506912442397
 11
2423.5723502304149
 21
2618.5506912442397
  0
LINE
  8
_0-0_
  6
CONTINUOUS
 62
    7
 10
2465.6723502304148
 20
2618.5506912442397
 11
2473.6723502304148
 21
2610.5506912442393
  0
LINE
  8
_0-0_
  6
CONTINUOUS
 62
    7
 10
2497.9855068925194
 20
2618.5506912442397
 11
2538.7723502304148
 21
2618.5506912442397
  0
LINE
  8
_0-0_
  6
CENTER1
 62
    7
 10
2496.6723502304148
 20
2618.5506912442397
 11
2538.7723502304148
 21
2618.5506912442397
  0
ARC
  8
_0-0_
  6
CONTINUOUS
 62
    7
 10
2423.5723502304149
 20
2581.5506912442397
 40
8
 50
180
 51
270
  0
LINE
  8
_0-0_
  6
CONTINUOUS
 62
    7
 10
2465.6723502304148
 20
2573.5506912442397
 11
2423.5723502304149
 21
2573.5506912442397
  0
ARC
  8
_0-0_
  6
CONTINUOUS
 62
    7
 10
2465.6723502304148
 20
2581.5506912442397
 40
8
 50
270
 51
0
  0
ARC
  8
_0-0_
  6
CONTINUOUS
 62
    7
 10
2611.8723502304147
 20
2581.5506912442397
 40
8
 50
270
 51
0
  0
ARC
  8
_0-0_
  6
CONTINUOUS
 62
    7
 10
2642.8723502304147
 20
2581.5506912442397
 40
8
 50
180
 51
270
  0
ARC
  8
_0-0_
  6
CONTINUOUS
 62
    7
 10
2758.0723502304145
 20
2581.5506912442397
 40
8
 50
270
 51
0
  0
ARC
  8
_0-0_
  6
CONTINUOUS
 62
    7
 10
2789.0723502304149
 20
2581.5506912442397
 40
8
 50
180
 51
270
  0
ARC
  8
_0-0_
  6
CONTINUOUS
 62
    7
 10
2904.2723502304148
 20
2581.5506912442397
 40
8
 50
270
 51
0
  0
ARC
  8
_0-0_
  6
CONTINUOUS
 62
    7
 10
2935.2723502304152
 20
2581.5506912442397
 40
8
 50
180
 51
270
  0
LINE
  8
_0-0_
  6
CONTINUOUS
 62
    7
 10
2977.3723502304147
 20
2573.5506912442397
 11
2935.2723502304152
 21
2573.5506912442397
  0
ARC
  8
_0-0_
  6
CONTINUOUS
 62
    7
 10
2977.3723502304147
 20
2581.5506912442397
 40
8
 50
270
 51
0
  0
LINE
  8
_0-0_
  6
CONTINUOUS
 62
    7
 10
2862.1723502304148
 20
2573.5506912442397
 11
2904.2723502304148
 21
2573.5506912442397
  0
LINE
  8
_0-0_
  6
CONTINUOUS
 62
    7
 10
2854.1723502304148
 20
2581.5506912442397
 11
2862.1723502304148
 21
2573.5506912442397
  0
LINE
  8
_0-0_
  6
CONTINUOUS
 62
    7
 10
2831.1723502304148
 20
2573.5506912442397
 11
2789.0723502304149
 21
2573.5506912442397
  0
LINE
  8
_0-0_
  6
CONTINUOUS
 62
    7
 10
2839.1723502304148
 20
2581.5506912442397
 11
2831.1723502304148
 21
2573.5506912442397
  0
LINE
  8
_0-0_
  6
CONTINUOUS
 62
    7
 10
2715.972350230415
 20
2573.5506912442397
 11
2758.0723502304145
 21
2573.5506912442397
  0
LINE
  8
_0-0_
  6
CONTINUOUS
 62
    7
 10
2707.972350230415
 20
2581.5506912442397
 11
2715.972350230415
 21
2573.5506912442397
  0
LINE
  8
_0-0_
  6
CONTINUOUS
 62
    7
 10
2684.972350230415
 20
2573.5506912442397
 11
2642.8723502304147
 21
2573.5506912442397
  0
LINE
  8
_0-0_
  6
CONTINUOUS
 62
    7
 10
2692.972350230415
 20
2581.5506912442397
 11
2684.972350230415
 21
2573.5506912442397
  0
LINE
  8
_0-0_
  6
CONTINUOUS
 62
    7
 10
2538.7723502304148
 20
2573.5506912442397
 11
2496.6723502304148
 21
2573.5506912442397
  0
LINE
  8
_0-0_
  6
CONTINUOUS
 62
    7
 10
2546.7723502304148
 20
2581.5506912442397
 11
2538.7723502304148
 21
2573.5506912442397
  0
LINE
  8
_0-0_
  6
CONTINUOUS
 62
    7
 10
2561.7723502304148
 20
2581.5506912442397
 11
2569.7723502304148
 21
2573.5506912442397
  0
LINE
  8
_0-0_
  6
CONTINUOUS
 62
    7
 10
2569.7723502304148
 20
2573.5506912442397
 11
2611.8723502304147
 21
2573.5506912442397
  0
LINE
  8
_0-0_
  6
CONTINUOUS
 62
    7
 10
2415.5723502304145
 20
2581.5506912442397
 11
2415.5723502304145
 21
2610.5506912442393
  0
LINE
  8
_0-0_
  6
CONTINUOUS
 62
    7
 10
2473.6723502304148
 20
2610.5506912442393
 11
2473.6723502304148
 21
2581.5506912442397
  0
ARC
  8
_0-0_
  6
CONTINUOUS
 62
    7
 10
2496.6723502304148
 20
2581.5506912442397
 40
8
 50
180
 51
270
  0
LINE
  8
_0-0_
  6
CONTINUOUS
 62
    7
 10
2488.6723502304148
 20
2610.5506912442393
 11
2488.6723502304148
 21
2581.5506912442397
  0
ARC
  8
_0-0_
  6
CONTINUOUS
 62
    7
 10
2538.7723502304148
 20
2610.5506912442393
 40
8
 50
0
 51
90
  0
LINE
  8
_0-0_
  6
CONTINUOUS
 62
    7
 10
2546.7723502304148
 20
2581.5506912442397
 11
2546.7723502304148
 21
2610.5506912442393
  0
LINE
  8
_0-0_
  6
CONTINUOUS
 62
    7
 10
2561.7723502304148
 20
2581.5506912442397
 11
2561.7723502304148
 21
2610.5506912442393
  0
LINE
  8
_0-0_
  6
CONTINUOUS
 62
    7
 10
2619.8723502304147
 20
2610.5506912442393
 11
2619.8723502304147
 21
2581.5506912442397
  0
LINE
  8
_0-0_
  6
CONTINUOUS
 62
    7
 10
2634.8723502304147
 20
2610.5506912442393
 11
2634.8723502304147
 21
2581.5506912442397
  0
LINE
  8
_0-0_
  6
CONTINUOUS
 62
    7
 10
2692.972350230415
 20
2581.5506912442397
 11
2692.972350230415
 21
2610.5506912442393
  0
LINE
  8
_0-0_
  6
CONTINUOUS
 62
    7
 10
2707.972350230415
 20
2581.5506912442397
 11
2707.972350230415
 21
2610.5506912442393
  0
LINE
  8
_0-0_
  6
CONTINUOUS
 62
    7
 10
2766.0723502304149
 20
2610.5506912442393
 11
2766.0723502304149
 21
2581.5506912442397
  0
LINE
  8
_0-0_
  6
CONTINUOUS
 62
    7
 10
2781.0723502304149
 20
2610.5506912442393
 11
2781.0723502304149
 21
2581.5506912442397
  0
LINE
  8
_0-0_
  6
CONTINUOUS
 62
    7
 10
2839.1723502304148
 20
2581.5506912442397
 11
2839.1723502304148
 21
2610.5506912442393
  0
LINE
  8
_0-0_
  6
CONTINUOUS
 62
    7
 10
2854.1723502304148
 20
2581.5506912442397
 11
2854.1723502304148
 21
2610.5506912442393
  0
LINE
  8
_0-0_
  6
CONTINUOUS
 62
    7
 10
2912.2723502304148
 20
2610.5506912442393
 11
2912.2723502304148
 21
2581.5506912442397
  0
LINE
  8
_0-0_
  6
CONTINUOUS
 62
    7
 10
2927.2723502304148
 20
2610.5506912442393
 11
2927.2723502304148
 21
2581.5506912442397
  0
LINE
  8
_0-0_
  6
CONTINUOUS
 62
    7
 10
2985.3723502304147
 20
2581.5506912442397
 11
2985.3723502304147
 21
2610.5506912442393
  0
LINE
  8
_0-9_
  6
CONTINUOUS
 62
    7
 10
2370.472350230415
 20
2633.5506912442397
 11
2370.472350230415
 21
2558.5506912442397
  0
POINT
  8
_0-9_
 62
    7
 10
2370.472350230415
 20
2633.5506912442397
  0
POINT
  8
_0-9_
 62
    7
 10
2370.472350230415
 20
2558.5506912442397
  0
LINE
  8
_0-9_
  6
CONTINUOUS
 62
    7
 10
2370.472350230415
 20
2633.5506912442397
 11
2380.472350230415
 21
2633.5506912442397
  0
LINE
  8
_0-9_
  6
CONTINUOUS
 62
    7
 10
2370.472350230415
 20
2558.5506912442397
 11
2380.472350230415
 21
2558.5506912442397
  0
TEXT
  8
_0-9_
 62
    7
 10
2369.9723502304146
 20
2587.9256912442397
 40
15
 41
1
 50
90
  1
75
  0
LINE
  8
_0-9_
  6
CONTINUOUS
 62
    7
 10
2400.472350230415
 20
2528.5506912442397
 11
3000.472350230415
 21
2528.5506912442397
  0
POINT
  8
_0-9_
 62
    7
 10
2400.472350230415
 20
2528.5506912442397
  0
POINT
  8
_0-9_
 62
    7
 10
3000.472350230415
 20
2528.5506912442397
  0
LINE
  8
_0-9_
  6
CONTINUOUS
 62
    7
 10
2400.472350230415
 20
2528.5506912442397
 11
2400.472350230415
 21
2538.5506912442397
  0
LINE
  8
_0-9_
  6
CONTINUOUS
 62
    7
 10
3000.472350230415
 20
2528.5506912442397
 11
3000.472350230415
 21
2538.5506912442397
  0
TEXT
  8
_0-9_
 62
    7
 10
2687.972350230415
 20
2529.0506912442397
 40
15
 41
1
 50
0
  1
600
  0
TEXT
  8
_1-b_
 62
    7
 10
2191.0419795435373
 20
3045.8497733525978
 40
17.5
 41
1
 50
0
  1
ＭＮＬＫ－７５５０Ｓ６Ｋ
  0
LINE
  8
_0-0_
  6
CONTINUOUS
 62
    7
 10
2900.472350230415
 20
2952.5506912442393
 11
2900.472350230415
 21
2881.5506912442397
  0
LINE
  8
_0-0_
  6
CONTINUOUS
 62
    7
 10
2461.9723502304146
 20
2893.5506912442397
 11
2469.9723502304146
 21
2901.5506912442397
  0
LINE
  8
_0-0_
  6
CONTINUOUS
 62
    7
 10
2554.1723502304148
 20
2932.5506912442393
 11
2562.1723502304148
 21
2940.5506912442397
  0
LINE
  8
_0-0_
  6
CONTINUOUS
 62
    7
 10
2608.3723502304151
 20
2901.5506912442397
 11
2600.3723502304147
 21
2893.5506912442397
  0
LINE
  8
_0-0_
  6
CONTINUOUS
 62
    7
 10
2623.3723502304151
 20
2901.5506912442397
 11
2631.3723502304151
 21
2893.5506912442397
  0
LINE
  8
_0-0_
  6
CONTINUOUS
 62
    7
 10
2669.5723502304149
 20
2940.5506912442397
 11
2677.5723502304154
 21
2932.5506912442393
  0
LINE
  8
_0-0_
  6
CONTINUOUS
 62
    7
 10
2692.5723502304154
 20
2932.5506912442393
 11
2700.5723502304145
 21
2940.5506912442397
  0
LINE
  8
_0-0_
  6
CONTINUOUS
 62
    7
 10
2738.7723502304152
 20
2893.5506912442397
 11
2746.7723502304148
 21
2901.5506912442397
  0
LINE
  8
_0-0_
  6
CONTINUOUS
 62
    7
 10
2761.7723502304148
 20
2901.5506912442397
 11
2769.7723502304148
 21
2893.5506912442397
  0
LINE
  8
_0-0_
  6
CONTINUOUS
 62
    7
 10
2807.972350230415
 20
2940.5506912442397
 11
2815.972350230415
 21
2932.5506912442393
  0
LINE
  8
_0-0_
  6
CONTINUOUS
 62
    7
 10
2830.972350230415
 20
2932.5506912442393
 11
2838.972350230415
 21
2940.5506912442397
  0
LINE
  8
_0-0_
  6
CONTINUOUS
 62
    7
 10
2877.1723502304148
 20
2940.5506912442397
 11
2838.972350230415
 21
2940.5506912442397
  0
ARC
  8
_0-0_
  6
CONTINUOUS
 62
    7
 10
2877.1723502304148
 20
2932.5506912442393
 40
8
 50
0
 51
90
  0
LINE
  8
_0-0_
  6
CONTINUOUS
 62
    7
 10
2885.1723502304148
 20
2901.5506912442397
 11
2885.1723502304148
 21
2932.5506912442393
  0
ARC
  8
_0-0_
  6
CONTINUOUS
 62
    7
 10
2877.1723502304148
 20
2901.5506912442397
 40
8
 50
270
 51
0
  0
LINE
  8
_0-0_
  6
CONTINUOUS
 62
    7
 10
2830.972350230415
 20
2901.5506912442397
 11
2830.972350230415
 21
2932.5506912442393
  0
LINE
  8
_0-0_
  6
CONTINUOUS
 62
    7
 10
2838.972350230415
 20
2893.5506912442397
 11
2877.1723502304148
 21
2893.5506912442397
  0
ARC
  8
_0-0_
  6
CONTINUOUS
 62
    7
 10
2838.972350230415
 20
2901.5506912442397
 40
8
 50
180
 51
270
  0
LINE
  8
_0-0_
  6
CONTINUOUS
 62
    7
 10
2815.972350230415
 20
2901.5506912442397
 11
2815.972350230415
 21
2932.5506912442393
  0
LINE
  8
_0-0_
  6
CONTINUOUS
 62
    7
 10
2807.972350230415
 20
2893.5506912442397
 11
2769.7723502304148
 21
2893.5506912442397
  0
ARC
  8
_0-0_
  6
CONTINUOUS
 62
    7
 10
2807.972350230415
 20
2901.5506912442397
 40
8
 50
270
 51
0
  0
LINE
  8
_0-0_
  6
CONTINUOUS
 62
    7
 10
2769.7723502304148
 20
2940.5506912442397
 11
2807.972350230415
 21
2940.5506912442397
  0
LINE
  8
_0-0_
  6
CONTINUOUS
 62
    7
 10
2761.7723502304148
 20
2932.5506912442393
 11
2761.7723502304148
 21
2901.5506912442397
  0
ARC
  8
_0-0_
  6
CONTINUOUS
 62
    7
 10
2769.7723502304148
 20
2932.5506912442393
 40
8
 50
90
 51
180
  0
LINE
  8
_0-0_
  6
CONTINUOUS
 62
    7
 10
2738.7723502304152
 20
2940.5506912442397
 11
2700.5723502304145
 21
2940.5506912442397
  0
LINE
  8
_0-0_
  6
CONTINUOUS
 62
    7
 10
2746.7723502304148
 20
2932.5506912442393
 11
2746.7723502304148
 21
2901.5506912442397
  0
ARC
  8
_0-0_
  6
CONTINUOUS
 62
    7
 10
2738.7723502304152
 20
2932.5506912442393
 40
8
 50
0
 51
90
  0
LINE
  8
_0-0_
  6
CONTINUOUS
 62
    7
 10
2692.5723502304154
 20
2901.5506912442397
 11
2692.5723502304154
 21
2932.5506912442393
  0
LINE
  8
_0-0_
  6
CONTINUOUS
 62
    7
 10
2700.5723502304145
 20
2893.5506912442397
 11
2738.7723502304152
 21
2893.5506912442397
  0
ARC
  8
_0-0_
  6
CONTINUOUS
 62
    7
 10
2700.5723502304145
 20
2901.5506912442397
 40
8
 50
180
 51
270
  0
LINE
  8
_0-0_
  6
CONTINUOUS
 62
    7
 10
2677.5723502304154
 20
2901.5506912442397
 11
2677.5723502304154
 21
2932.5506912442393
  0
LINE
  8
_0-0_
  6
CONTINUOUS
 62
    7
 10
2669.5723502304149
 20
2893.5506912442397
 11
2631.3723502304151
 21
2893.5506912442397
  0
ARC
  8
_0-0_
  6
CONTINUOUS
 62
    7
 10
2669.5723502304149
 20
2901.5506912442397
 40
8
 50
270
 51
0
  0
LINE
  8
_0-0_
  6
CONTINUOUS
 62
    7
 10
2631.3723502304151
 20
2940.5506912442397
 11
2669.5723502304149
 21
2940.5506912442397
  0
LINE
  8
_0-0_
  6
CONTINUOUS
 62
    7
 10
2623.3723502304151
 20
2932.5506912442393
 11
2623.3723502304151
 21
2901.5506912442397
  0
ARC
  8
_0-0_
  6
CONTINUOUS
 62
    7
 10
2631.3723502304151
 20
2932.5506912442393
 40
8
 50
90
 51
180
  0
LINE
  8
_0-0_
  6
CONTINUOUS
 62
    7
 10
2608.3723502304151
 20
2932.5506912442393
 11
2608.3723502304151
 21
2901.5506912442397
  0
ARC
  8
_0-0_
  6
CONTINUOUS
 62
    7
 10
2600.3723502304147
 20
2932.5506912442393
 40
8
 50
0
 51
90
  0
LINE
  8
_0-0_
  6
CONTINUOUS
 62
    7
 10
2554.1723502304148
 20
2901.5506912442397
 11
2554.1723502304148
 21
2932.5506912442393
  0
LINE
  8
_0-0_
  6
CONTINUOUS
 62
    7
 10
2562.1723502304148
 20
2893.5506912442397
 11
2600.3723502304147
 21
2893.5506912442397
  0
ARC
  8
_0-0_
  6
CONTINUOUS
 62
    7
 10
2562.1723502304148
 20
2901.5506912442397
 40
8
 50
180
 51
270
  0
LINE
  8
_0-0_
  6
CONTINUOUS
 62
    7
 10
2469.9723502304146
 20
2932.5506912442393
 11
2469.9723502304146
 21
2901.5506912442397
  0
ARC
  8
_0-0_
  6
CONTINUOUS
 62
    7
 10
2461.9723502304146
 20
2932.5506912442393
 40
8
 50
0
 51
90
  0
LINE
  8
_0-0_
  6
CONTINUOUS
 62
    7
 10
2423.7723502304148
 20
2940.5506912442397
 11
2461.9723502304146
 21
2940.5506912442397
  0
ARC
  8
_0-0_
  6
CONTINUOUS
 62
    7
 10
2423.7723502304148
 20
2932.5506912442393
 40
8
 50
90
 51
180
  0
LINE
  8
_0-0_
  6
CONTINUOUS
 62
    7
 10
2415.7723502304143
 20
2901.5506912442397
 11
2415.7723502304143
 21
2932.5506912442393
  0
LINE
  8
_0-0_
  6
CONTINUOUS
 62
    7
 10
2423.7723502304148
 20
2893.5506912442397
 11
2461.9723502304146
 21
2893.5506912442397
  0
ARC
  8
_0-0_
  6
CONTINUOUS
 62
    7
 10
2423.7723502304148
 20
2901.5506912442397
 40
8
 50
180
 51
270
  0
ARC
  8
_0-0_
  6
CONTINUOUS
 62
    7
 10
2531.1723502304148
 20
2901.5506912442397
 40
8
 50
270
 51
0
  0
LINE
  8
_0-0_
  6
CONTINUOUS
 62
    7
 10
2484.9723502304146
 20
2932.5506912442393
 11
2484.9723502304146
 21
2901.5506912442397
  0
ARC
  8
_0-0_
  6
CONTINUOUS
 62
    7
 10
2492.972350230415
 20
2932.5506912442393
 40
8
 50
90
 51
180
  0
LINE
  8
_0-0_
  6
CONTINUOUS
 62
    7
 10
2531.1723502304148
 20
2940.5506912442397
 11
2492.972350230415
 21
2940.5506912442397
  0
LINE
  8
_0-0_
  6
CONTINUOUS
 62
    7
 10
2539.1723502304148
 20
2932.5506912442393
 11
2539.1723502304148
 21
2901.5506912442397
  0
LINE
  8
_0-0_
  6
CONTINUOUS
 62
    7
 10
2531.1723502304148
 20
2940.5506912442397
 11
2539.1723502304148
 21
2932.5506912442393
  0
LINE
  8
_0-0_
  6
CONTINUOUS
 62
    7
 10
2484.9723502304146
 20
2901.5506912442397
 11
2492.972350230415
 21
2893.5506912442397
  0
LINE
  8
_0-0_
  6
CONTINUOUS
 62
    7
 10
2600.3723502304147
 20
2940.5506912442397
 11
2562.1723502304148
 21
2940.5506912442397
  0
LINE
  8
_0-0_
  6
CENTER1
 62
    7
 10
2477.4723502304146
 20
2901.5506912442397
 11
2477.4723502304146
 21
2885.5506912442397
  0
LINE
  8
_0-0_
  6
CENTER1
 62
    7
 10
2484.9723502304146
 20
2893.5506912442397
 11
2469.9723502304146
 21
2893.5506912442397
  0
LINE
  8
_0-0_
  6
CENTER1
 62
    7
 10
2546.6723502304148
 20
2948.5506912442397
 11
2546.6723502304148
 21
2932.5506912442393
  0
LINE
  8
_0-0_
  6
CENTER1
 62
    7
 10
2552.8894277354125
 20
2940.5506912442397
 11
2539.1723502304148
 21
2940.5506912442397
  0
LINE
  8
_0-0_
  6
CONTINUOUS
 62
    7
 10
2531.1723502304148
 20
2893.5506912442397
 11
2492.972350230415
 21
2893.5506912442397
  0
CIRCLE
  8
_0-0_
  6
CONTINUOUS
 62
    7
 10
2477.4724719853648
 20
2893.550590128491
 40
1.3
  0
CIRCLE
  8
_0-0_
  6
CONTINUOUS
 62
    7
 10
2546.6723493356926
 20
2940.5506889021935
 40
1.3
  0
LINE
  8
_0-0_
  6
CENTER1
 62
    7
 10
2685.0723502304145
 20
2948.5506912442397
 11
2685.0723502304145
 21
2932.5506912442393
  0
LINE
  8
_0-0_
  6
CENTER1
 62
    7
 10
2691.2894277354126
 20
2940.5506912442397
 11
2677.5723502304145
 21
2940.5506912442397
  0
CIRCLE
  8
_0-0_
  6
CONTINUOUS
 62
    7
 10
2685.0723493356927
 20
2940.5506889021935
 40
1.3
  0
LINE
  8
_0-0_
  6
CENTER1
 62
    7
 10
2623.3723502304151
 20
2893.5506912442397
 11
2608.3723502304151
 21
2893.5506912442397
  0
LINE
  8
_0-0_
  6
CENTER1
 62
    7
 10
2615.8723502304151
 20
2901.5506912442397
 11
2615.8723502304151
 21
2885.5506912442397
  0
CIRCLE
  8
_0-0_
  6
CONTINUOUS
 62
    7
 10
2615.8724719853649
 20
2893.550590128491
 40
1.3
  0
LINE
  8
_0-0_
  6
CENTER1
 62
    7
 10
2823.472350230415
 20
2948.5506912442397
 11
2823.472350230415
 21
2932.5506912442393
  0
LINE
  8
_0-0_
  6
CENTER1
 62
    7
 10
2829.6894277354122
 20
2940.5506912442397
 11
2815.972350230415
 21
2940.5506912442397
  0
CIRCLE
  8
_0-0_
  6
CONTINUOUS
 62
    7
 10
2823.4723493356928
 20
2940.5506889021935
 40
1.3
  0
LINE
  8
_0-0_
  6
CENTER1
 62
    7
 10
2761.7723502304148
 20
2893.5506912442397
 11
2746.7723502304148
 21
2893.5506912442397
  0
LINE
  8
_0-0_
  6
CENTER1
 62
    7
 10
2754.2723502304148
 20
2901.5506912442397
 11
2754.2723502304148
 21
2885.5506912442397
  0
CIRCLE
  8
_0-0_
  6
CONTINUOUS
 62
    7
 10
2754.2724719853641
 20
2893.550590128491
 40
1.3
  0
LINE
  8
_0-0_
  6
CONTINUOUS
 62
    7
 10
2400.472350230415
 20
2881.5506912442397
 11
2402.4723502304146
 21
2879.5506912442397
  0
LINE
  8
_0-0_
  6
CONTINUOUS
 62
    7
 10
2402.4723502304146
 20
2954.5506912442397
 11
2400.472350230415
 21
2952.5506912442393
  0
LINE
  8
_0-0_
  6
CONTINUOUS
 62
    7
 10
2400.472350230415
 20
2952.5506912442393
 11
2400.472350230415
 21
2881.5506912442397
  0
LINE
  8
_0-0_
  6
CONTINUOUS
 62
    7
 10
2898.472350230415
 20
2879.5506912442397
 11
2402.4723502304146
 21
2879.5506912442397
  0
LINE
  8
_0-0_
  6
CONTINUOUS
 62
    7
 10
2900.472350230415
 20
2881.5506912442397
 11
2898.472350230415
 21
2879.5506912442397
  0
LINE
  8
_0-0_
  6
CONTINUOUS
 62
    7
 10
2898.472350230415
 20
2954.5506912442397
 11
2402.4723502304146
 21
2954.5506912442397
  0
LINE
  8
_0-0_
  6
CONTINUOUS
 62
    7
 10
2898.472350230415
 20
2954.5506912442397
 11
2900.472350230415
 21
2952.5506912442393
  0
LINE
  8
_0-9_
  6
CONTINUOUS
 62
    7
 10
2370.472350230415
 20
2954.5506912442397
 11
2370.472350230415
 21
2879.5506912442397
  0
POINT
  8
_0-9_
 62
    7
 10
2370.472350230415
 20
2954.5506912442397
  0
POINT
  8
_0-9_
 62
    7
 10
2370.472350230415
 20
2879.5506912442397
  0
LINE
  8
_0-9_
  6
CONTINUOUS
 62
    7
 10
2370.472350230415
 20
2954.5506912442397
 11
2380.472350230415
 21
2954.5506912442397
  0
LINE
  8
_0-9_
  6
CONTINUOUS
 62
    7
 10
2370.472350230415
 20
2879.5506912442397
 11
2380.472350230415
 21
2879.5506912442397
  0
TEXT
  8
_0-9_
 62
    7
 10
2369.9723502304146
 20
2908.9256912442397
 40
15
 41
1
 50
90
  1
75
  0
LINE
  8
_0-9_
  6
CONTINUOUS
 62
    7
 10
2400.472350230415
 20
2849.5506912442397
 11
2900.472350230415
 21
2849.5506912442397
  0
POINT
  8
_0-9_
 62
    7
 10
2400.472350230415
 20
2849.5506912442397
  0
POINT
  8
_0-9_
 62
    7
 10
2900.472350230415
 20
2849.5506912442397
  0
LINE
  8
_0-9_
  6
CONTINUOUS
 62
    7
 10
2400.472350230415
 20
2849.5506912442397
 11
2400.472350230415
 21
2859.5506912442397
  0
LINE
  8
_0-9_
  6
CONTINUOUS
 62
    7
 10
2900.472350230415
 20
2849.5506912442397
 11
2900.472350230415
 21
2859.5506912442397
  0
TEXT
  8
_0-9_
 62
    7
 10
2637.972350230415
 20
2850.0506912442393
 40
15
 41
1
 50
0
  1
500
  0
LINE
  8
_1-a_
  6
CONTINUOUS
 62
    7
 10
1070.4723502304148
 20
3389.5506912442397
 11
1070.4723502304148
 21
2429.5506912442397
  0
LINE
  8
_1-a_
  6
CONTINUOUS
 62
    7
 10
1970.472350230415
 20
3389.5506912442397
 11
1970.472350230415
 21
2429.5506912442397
  0
LINE
  8
_1-a_
  6
CONTINUOUS
 62
    7
 10
2170.472350230415
 20
3389.5506912442397
 11
2170.472350230415
 21
2429.5506912442397
  0
LINE
  8
_1-a_
  6
CONTINUOUS
 62
    7
 10
3070.472350230415
 20
3389.5506912442397
 11
3070.472350230415
 21
2429.5506912442397
  0
LINE
  8
_1-a_
  6
CONTINUOUS
 62
    7
 10
1070.4723502304148
 20
2429.5506912442397
 11
1970.472350230415
 21
2429.5506912442397
  0
LINE
  8
_1-a_
  6
CONTINUOUS
 62
    7
 10
1070.4723502304148
 20
2429.5506912442397
 11
1970.472350230415
 21
2429.5506912442397
  0
LINE
  8
_1-a_
  6
CONTINUOUS
 62
    7
 10
1070.4723502304148
 20
2389.5506912442397
 11
1970.472350230415
 21
2389.5506912442397
  0
TEXT
  8
_1-a_
 62
    7
 10
1855.472350230415
 20
2417.0506912442397
 40
10
 41
1
 50
0
  1
ＳＣＡＬＥ
  0
LINE
  8
_1-a_
  6
CONTINUOUS
 62
    7
 10
1320.4723502304148
 20
2429.5506912442397
 11
1320.4723502304148
 21
2389.5506912442397
  0
LINE
  8
_1-a_
  6
CONTINUOUS
 62
    7
 10
1600.4723502304148
 20
2429.5506912442397
 11
1600.4723502304148
 21
2389.5506912442397
  0
TEXT
  8
_1-a_
 62
    7
 10
1922.972350230415
 20
2417.0506912442397
 40
10
 41
1
 50
0
  1
図面No.
  0
TEXT
  8
_1-a_
 62
    7
 10
1074.2223502304148
 20
2402.0506912442397
 40
15
 41
1
 50
0
  1
メ－ス（押出成形セメント板）
  0
TEXT
  8
_1-a_
 62
    7
 10
1867.972350230415
 20
2394.5506912442397
 40
15
 41
1
 50
0
  1
1/5
  0
LINE
  8
_1-a_
  6
CONTINUOUS
 62
    7
 10
1070.4723502304148
 20
2429.5506912442397
 11
1070.4723502304148
 21
2389.5506912442397
  0
LINE
  8
_1-a_
  6
CONTINUOUS
 62
    7
 10
1850.472350230415
 20
2414.5506912442397
 11
1970.472350230415
 21
2414.5506912442397
  0
LINE
  8
_1-a_
  6
CONTINUOUS
 62
    7
 10
1850.472350230415
 20
2429.5506912442397
 11
1850.472350230415
 21
2389.5506912442397
  0
LINE
  8
_1-a_
  6
CONTINUOUS
 62
    7
 10
1910.472350230415
 20
2429.5506912442397
 11
1910.472350230415
 21
2389.5506912442397
  0
LINE
  8
_1-a_
  6
CONTINUOUS
 62
    7
 10
1970.472350230415
 20
2429.5506912442397
 11
1970.472350230415
 21
2389.5506912442397
  0
LINE
  8
_1-a_
  6
CONTINUOUS
 62
    7
 10
2170.472350230415
 20
2429.5506912442397
 11
3070.472350230415
 21
2429.5506912442397
  0
LINE
  8
_1-a_
  6
CONTINUOUS
 62
    7
 10
2170.472350230415
 20
2429.5506912442397
 11
3070.472350230415
 21
2429.5506912442397
  0
LINE
  8
_1-a_
  6
CONTINUOUS
 62
    7
 10
2170.472350230415
 20
2389.5506912442397
 11
3070.472350230415
 21
2389.5506912442397
  0
TEXT
  8
_1-a_
 62
    7
 10
2955.472350230415
 20
2417.0506912442397
 40
10
 41
1
 50
0
  1
ＳＣＡＬＥ
  0
LINE
  8
_1-a_
  6
CONTINUOUS
 62
    7
 10
2420.472350230415
 20
2429.5506912442397
 11
2420.472350230415
 21
2389.5506912442397
  0
TEXT
  8
_1-a_
 62
    7
 10
3022.972350230415
 20
2417.0506912442397
 40
10
 41
1
 50
0
  1
図面No.
  0
TEXT
  8
_1-a_
 62
    7
 10
2174.222350230415
 20
2402.0506912442397
 40
15
 41
1
 50
0
  1
メ－ス（押出成形セメント板）
  0
TEXT
  8
_1-a_
 62
    7
 10
2967.972350230415
 20
2394.5506912442397
 40
15
 41
1
 50
0
  1
1/5
  0
LINE
  8
_1-a_
  6
CONTINUOUS
 62
    7
 10
2170.472350230415
 20
2429.5506912442397
 11
2170.472350230415
 21
2389.5506912442397
  0
LINE
  8
_1-a_
  6
CONTINUOUS
 62
    7
 10
2950.472350230415
 20
2414.5506912442397
 11
3070.472350230415
 21
2414.5506912442397
  0
LINE
  8
_1-a_
  6
CONTINUOUS
 62
    7
 10
2950.472350230415
 20
2429.5506912442397
 11
2950.472350230415
 21
2389.5506912442397
  0
LINE
  8
_1-a_
  6
CONTINUOUS
 62
    7
 10
3070.472350230415
 20
2429.5506912442397
 11
3070.472350230415
 21
2389.5506912442397
  0
TEXT
  8
_1-a_
 62
    7
 10
1665.472350230415
 20
2402.0506912442397
 40
15
 41
1
 50
0
  1
ルーバーメース
  0
TEXT
  8
_1-a_
 62
    7
 10
2765.472350230415
 20
2402.0506912442397
 40
15
 41
1
 50
0
  1
ルーバーメース
  0
LINE
  8
_0-0_
  6
CENTER1
 62
    7
 10
2697.972350230415
 20
3268.5506928056038
 11
2697.972350230415
 21
3252.5506928056034
  0
LINE
  8
_0-0_
  6
CENTER1
 62
    7
 10
2777.9723096454313
 20
3213.5507249494894
 11
2762.9723096454313
 21
3213.5507249494894
  0
LINE
  8
_0-0_
  6
CENTER1
 62
    7
 10
2704.1894277354122
 20
3260.5506928056038
 11
2690.472350230415
 21
3260.5506928056038
  0
LINE
  8
_0-0_
  6
CONTINUOUS
 62
    7
 10
2400.472350230415
 20
3201.5506912442397
 11
2402.4723502304146
 21
3199.5506912442397
  0
LINE
  8
_0-0_
  6
CONTINUOUS
 62
    7
 10
2402.4723502304146
 20
3274.5506912442397
 11
2400.472350230415
 21
3272.5506912442397
  0
LINE
  8
_0-0_
  6
CONTINUOUS
 62
    7
 10
2400.472350230415
 20
3272.5506912442397
 11
2400.472350230415
 21
3201.5506912442397
  0
LINE
  8
_0-0_
  6
CONTINUOUS
 62
    7
 10
2848.472350230415
 20
3274.5506912442397
 11
2402.4723502304146
 21
3274.5506912442397
  0
LINE
  8
_0-0_
  6
CONTINUOUS
 62
    7
 10
2848.472350230415
 20
3274.5506912442397
 11
2850.472350230415
 21
3272.5506912442397
  0
LINE
  8
_0-0_
  6
CONTINUOUS
 62
    7
 10
2850.472350230415
 20
3201.5506912442397
 11
2850.472350230415
 21
3272.5506912442397
  0
LINE
  8
_0-0_
  6
CONTINUOUS
 62
    7
 10
2848.472350230415
 20
3199.5506912442397
 11
2402.4723502304146
 21
3199.5506912442397
  0
LINE
  8
_0-0_
  6
CONTINUOUS
 62
    7
 10
2850.472350230415
 20
3201.5506912442397
 11
2848.472350230415
 21
3199.5506912442397
  0
LINE
  8
_0-0_
  6
CENTER1
 62
    7
 10
2770.4723096454313
 20
3221.550724949489
 11
2770.4723096454313
 21
3205.5507249494894
  0
CIRCLE
  8
_0-0_
  6
CONTINUOUS
 62
    7
 10
2770.4724314003811
 20
3213.5506238337402
 40
1.3
  0
LINE
  8
_0-0_
  6
CENTER1
 62
    7
 10
2632.9723096454313
 20
3213.5507249494894
 11
2617.9723096454313
 21
3213.5507249494894
  0
LINE
  8
_0-0_
  6
CENTER1
 62
    7
 10
2625.4723096454313
 20
3221.550724949489
 11
2625.4723096454313
 21
3205.5507249494894
  0
CIRCLE
  8
_0-0_
  6
CONTINUOUS
 62
    7
 10
2625.4724314003811
 20
3213.5506238337402
 40
1.3
  0
LINE
  8
_0-0_
  6
CENTER1
 62
    7
 10
2552.972350230415
 20
3268.5506912442397
 11
2552.972350230415
 21
3252.5506912442397
  0
LINE
  8
_0-0_
  6
CENTER1
 62
    7
 10
2559.1894277354122
 20
3260.5506912442393
 11
2545.472350230415
 21
3260.5506912442393
  0
CIRCLE
  8
_0-0_
  6
CONTINUOUS
 62
    7
 10
2552.9723493356923
 20
3260.5506889021935
 40
1.3
  0
LINE
  8
_0-0_
  6
CENTER1
 62
    7
 10
2480.4723096454313
 20
3221.550724949489
 11
2480.4723096454313
 21
3205.5507249494894
  0
LINE
  8
_0-0_
  6
CENTER1
 62
    7
 10
2487.9723096454313
 20
3213.5507249494894
 11
2472.9723096454313
 21
3213.5507249494894
  0
CIRCLE
  8
_0-0_
  6
CONTINUOUS
 62
    7
 10
2480.4724314003811
 20
3213.5506238337402
 40
1.3
  0
CIRCLE
  8
_0-0_
  6
CONTINUOUS
 62
    7
 10
2697.9723493356923
 20
3260.5506904635577
 40
1.3
  0
ARC
  8
_0-0_
  6
CONTINUOUS
 62
    7
 10
2423.472350230415
 20
3252.5506912442397
 40
7.9999999999999991
 50
90
 51
180
  0
LINE
  8
_0-0_
  6
CONTINUOUS
 62
    7
 10
2464.9723502304146
 20
3260.5506912442393
 11
2423.472350230415
 21
3260.5506912442393
  0
ARC
  8
_0-0_
  6
CONTINUOUS
 62
    7
 10
2464.9723502304146
 20
3252.5506912442397
 40
7.9999999999999991
 50
0
 51
90
  0
LINE
  8
_0-0_
  6
CONTINUOUS
 62
    7
 10
2415.472350230415
 20
3221.5506912442397
 11
2415.472350230415
 21
3252.5506912442397
  0
ARC
  8
_0-0_
  6
CONTINUOUS
 62
    7
 10
2423.472350230415
 20
3221.5506912442397
 40
7.9999999999999991
 50
180
 51
270
  0
ARC
  8
_0-0_
  6
CONTINUOUS
 62
    7
 10
2495.972350230415
 20
3252.5506912442397
 40
7.9999999999999991
 50
90
 51
180
  0
ARC
  8
_0-0_
  6
CONTINUOUS
 62
    7
 10
2537.4723502304146
 20
3221.5506912442397
 40
7.9999999999999991
 50
270
 51
0
  0
ARC
  8
_0-0_
  6
CONTINUOUS
 62
    7
 10
2568.472350230415
 20
3221.5506912442397
 40
7.9999999999999991
 50
180
 51
270
  0
ARC
  8
_0-0_
  6
CONTINUOUS
 62
    7
 10
2609.9723502304146
 20
3252.5506912442397
 40
7.9999999999999991
 50
0
 51
90
  0
ARC
  8
_0-0_
  6
CONTINUOUS
 62
    7
 10
2640.972350230415
 20
3252.5506912442397
 40
7.9999999999999991
 50
90
 51
180
  0
ARC
  8
_0-0_
  6
CONTINUOUS
 62
    7
 10
2682.4723502304146
 20
3221.5506912442397
 40
7.9999999999999991
 50
270
 51
0
  0
ARC
  8
_0-0_
  6
CONTINUOUS
 62
    7
 10
2713.472350230415
 20
3221.5506912442397
 40
7.9999999999999991
 50
180
 51
270
  0
ARC
  8
_0-0_
  6
CONTINUOUS
 62
    7
 10
2754.9723502304146
 20
3252.5506912442397
 40
7.9999999999999991
 50
0
 51
90
  0
ARC
  8
_0-0_
  6
CONTINUOUS
 62
    7
 10
2785.972350230415
 20
3252.5506912442397
 40
7.9999999999999991
 50
90
 51
180
  0
LINE
  8
_0-0_
  6
CONTINUOUS
 62
    7
 10
2827.4723502304146
 20
3260.5506912442393
 11
2785.972350230415
 21
3260.5506912442393
  0
ARC
  8
_0-0_
  6
CONTINUOUS
 62
    7
 10
2827.4723502304146
 20
3252.5506912442397
 40
7.9999999999999991
 50
0
 51
90
  0
LINE
  8
_0-0_
  6
CONTINUOUS
 62
    7
 10
2835.472350230415
 20
3221.5506912442397
 11
2835.472350230415
 21
3252.5506912442397
  0
ARC
  8
_0-0_
  6
CONTINUOUS
 62
    7
 10
2827.4723502304146
 20
3221.5506912442397
 40
7.9999999999999991
 50
270
 51
0
  0
LINE
  8
_0-0_
  6
CONTINUOUS
 62
    7
 10
2472.972350230415
 20
3221.5506912442397
 11
2472.972350230415
 21
3252.5506912442397
  0
LINE
  8
_0-0_
  6
CONTINUOUS
 62
    7
 10
2464.9723502304146
 20
3213.5506912442397
 11
2423.472350230415
 21
3213.5506912442397
  0
LINE
  8
_0-0_
  6
CONTINUOUS
 62
    7
 10
2472.972350230415
 20
3221.5506912442397
 11
2464.9723502304146
 21
3213.5506912442397
  0
LINE
  8
_0-0_
  6
CONTINUOUS
 62
    7
 10
2487.972350230415
 20
3221.5506912442397
 11
2487.972350230415
 21
3252.5506912442397
  0
LINE
  8
_0-0_
  6
CONTINUOUS
 62
    7
 10
2495.972350230415
 20
3213.5506912442397
 11
2537.4723502304146
 21
3213.5506912442397
  0
LINE
  8
_0-0_
  6
CONTINUOUS
 62
    7
 10
2487.972350230415
 20
3221.5506912442397
 11
2495.972350230415
 21
3213.5506912442397
  0
LINE
  8
_0-0_
  6
CONTINUOUS
 62
    7
 10
2568.472350230415
 20
3260.5506912442393
 11
2609.9723502304146
 21
3260.5506912442393
  0
LINE
  8
_0-0_
  6
CONTINUOUS
 62
    7
 10
2560.472350230415
 20
3252.5506912442397
 11
2560.472350230415
 21
3221.5506912442397
  0
LINE
  8
_0-0_
  6
CONTINUOUS
 62
    7
 10
2568.472350230415
 20
3260.5506912442393
 11
2560.472350230415
 21
3252.5506912442397
  0
LINE
  8
_0-0_
  6
CONTINUOUS
 62
    7
 10
2617.972350230415
 20
3221.5506912442397
 11
2617.972350230415
 21
3252.5506912442397
  0
LINE
  8
_0-0_
  6
CONTINUOUS
 62
    7
 10
2609.9723502304146
 20
3213.5506912442397
 11
2568.472350230415
 21
3213.5506912442397
  0
LINE
  8
_0-0_
  6
CONTINUOUS
 62
    7
 10
2617.972350230415
 20
3221.5506912442397
 11
2609.9723502304146
 21
3213.5506912442397
  0
LINE
  8
_0-0_
  6
CONTINUOUS
 62
    7
 10
2632.972350230415
 20
3221.5506912442397
 11
2632.972350230415
 21
3252.5506912442397
  0
LINE
  8
_0-0_
  6
CONTINUOUS
 62
    7
 10
2640.972350230415
 20
3213.5506912442397
 11
2682.4723502304146
 21
3213.5506912442397
  0
LINE
  8
_0-0_
  6
CONTINUOUS
 62
    7
 10
2632.972350230415
 20
3221.5506912442397
 11
2640.972350230415
 21
3213.5506912442397
  0
LINE
  8
_0-0_
  6
CONTINUOUS
 62
    7
 10
2682.4723502304146
 20
3260.5506912442393
 11
2640.972350230415
 21
3260.5506912442393
  0
LINE
  8
_0-0_
  6
CONTINUOUS
 62
    7
 10
2690.472350230415
 20
3252.5506912442397
 11
2690.472350230415
 21
3221.5506912442397
  0
LINE
  8
_0-0_
  6
CONTINUOUS
 62
    7
 10
2682.4723502304146
 20
3260.5506912442393
 11
2690.472350230415
 21
3252.5506912442397
  0
LINE
  8
_0-0_
  6
CONTINUOUS
 62
    7
 10
2705.472350230415
 20
3252.5506912442397
 11
2705.472350230415
 21
3221.5506912442397
  0
LINE
  8
_0-0_
  6
CONTINUOUS
 62
    7
 10
2713.472350230415
 20
3260.5506912442393
 11
2754.9723502304146
 21
3260.5506912442393
  0
LINE
  8
_0-0_
  6
CONTINUOUS
 62
    7
 10
2705.472350230415
 20
3252.5506912442397
 11
2713.472350230415
 21
3260.5506912442393
  0
LINE
  8
_0-0_
  6
CONTINUOUS
 62
    7
 10
2762.972350230415
 20
3221.5506912442397
 11
2762.972350230415
 21
3252.5506912442397
  0
LINE
  8
_0-0_
  6
CONTINUOUS
 62
    7
 10
2754.9723502304146
 20
3213.5506912442397
 11
2713.472350230415
 21
3213.5506912442397
  0
LINE
  8
_0-0_
  6
CONTINUOUS
 62
    7
 10
2762.972350230415
 20
3221.5506912442397
 11
2754.9723502304146
 21
3213.5506912442397
  0
LINE
  8
_0-0_
  6
CONTINUOUS
 62
    7
 10
2777.972350230415
 20
3221.5506912442397
 11
2777.972350230415
 21
3252.5506912442397
  0
LINE
  8
_0-0_
  6
CONTINUOUS
 62
    7
 10
2785.972350230415
 20
3213.5506912442397
 11
2827.4723502304146
 21
3213.5506912442397
  0
LINE
  8
_0-0_
  6
CONTINUOUS
 62
    7
 10
2777.972350230415
 20
3221.5506912442397
 11
2785.972350230415
 21
3213.5506912442397
  0
LINE
  8
_0-0_
  6
CONTINUOUS
 62
    7
 10
2537.4723502304146
 20
3260.5506912442393
 11
2495.972350230415
 21
3260.5506912442393
  0
LINE
  8
_0-0_
  6
CONTINUOUS
 62
    7
 10
2545.472350230415
 20
3252.5506912442397
 11
2545.472350230415
 21
3221.5506912442397
  0
LINE
  8
_0-0_
  6
CONTINUOUS
 62
    7
 10
2537.4723502304146
 20
3260.5506912442393
 11
2545.472350230415
 21
3252.5506912442397
  0
LINE
  8
_0-9_
  6
CONTINUOUS
 62
    7
 10
2370.472350230415
 20
3274.5506912442397
 11
2370.472350230415
 21
3199.5506912442397
  0
POINT
  8
_0-9_
 62
    7
 10
2370.472350230415
 20
3274.5506912442397
  0
POINT
  8
_0-9_
 62
    7
 10
2370.472350230415
 20
3199.5506912442397
  0
LINE
  8
_0-9_
  6
CONTINUOUS
 62
    7
 10
2370.472350230415
 20
3274.5506912442397
 11
2380.472350230415
 21
3274.5506912442397
  0
LINE
  8
_0-9_
  6
CONTINUOUS
 62
    7
 10
2370.472350230415
 20
3199.5506912442397
 11
2380.472350230415
 21
3199.5506912442397
  0
TEXT
  8
_0-9_
 62
    7
 10
2369.9723502304146
 20
3228.9256912442397
 40
15
 41
1
 50
90
  1
75
  0
POINT
  8
_0-9_
 62
    7
 10
2400.472350230415
 20
3169.5506912442397
  0
LINE
  8
_0-9_
  6
CONTINUOUS
 62
    7
 10
2400.472350230415
 20
3169.5506912442397
 11
2400.472350230415
 21
3179.5506912442397
  0
POINT
  8
_0-9_
 62
    7
 10
2850.472350230415
 20
3169.5506912442397
  0
LINE
  8
_0-9_
  6
CONTINUOUS
 62
    7
 10
2850.472350230415
 20
3169.5506912442397
 11
2850.472350230415
 21
3179.5506912442397
  0
LINE
  8
_0-9_
  6
CONTINUOUS
 62
    7
 10
2400.472350230415
 20
3169.5506912442397
 11
2850.472350230415
 21
3169.5506912442397
  0
TEXT
  8
_0-9_
 62
    7
 10
2637.972350230415
 20
3170.0506912442393
 40
15
 41
1
 50
0
  1
450
  0
TEXT
  8
_0-8_
 62
    7
 10
1074.580504478397
 20
3395.5628589174275
 40
35
 41
1
 50
0
  1
４．ルーバーメース
  0
LINE
  8
ADD_LINE
  6
DOT
 62
    7
 10
990.4723502304148
 20
1999.5506912442397
 11
2020.472350230415
 21
1999.5506912442397
  0
LINE
  8
ADD_LINE
  6
DOT
 62
    7
 10
2090.472350230415
 20
1999.5506912442397
 11
3120.472350230415
 21
1999.5506912442397
  0
TEXT
  8
_1-b_
 62
    7
 10
2191.0419795435373
 20
3365.8497733525978
 40
17.5
 41
1
 50
0
  1
ＭＮＬＫ－７５４５Ｓ５Ｋ
  0
TEXT
  8
_1-a_
 62
    7
 10
1932.347350230415
 20
2394.5506912442397
 40
15
 41
1
 50
0
  1
25
  0
TEXT
  8
_1-a_
 62
    7
 10
3032.347350230415
 20
2394.5506912442397
 40
15
 41
1
 50
0
  1
26
  0
TEXT
  8
_2-b_
 62
    7
 10
1357.0282494365138
 20
2401.0311317532955
 40
15
 41
1
 50
0
  1
アイカテック建材株式会社
  0
TEXT
  8
_2-b_
 62
    7
 10
2457.0282494365138
 20
2401.0311317532955
 40
15
 41
1
 50
0
  1
アイカテック建材株式会社
  0
LINE
  8
_0-9_
  6
CONTINUOUS
 62
    7
 10
1300.4723502304148
 20
3287.8981148828634
 11
1316.4723502304146
 21
3287.8981148828634
  0
POINT
  8
_0-9_
 62
    7
 10
1300.4723502304148
 20
3287.8981148828634
  0
POINT
  8
_0-9_
 62
    7
 10
1316.4723502304146
 20
3287.8981148828634
  0
LINE
  8
_0-9_
  6
CONTINUOUS
 62
    7
 10
1300.4723502304148
 20
3287.8981148828634
 11
1300.4723502304148
 21
3277.9722355030394
  0
LINE
  8
_0-9_
  6
CONTINUOUS
 62
    7
 10
1316.4723502304146
 20
3287.8981148828634
 11
1316.4723502304146
 21
3277.9722355030394
  0
TEXT
  8
_0-9_
 62
    7
 10
1300.3473502304143
 20
3288.3981148828634
 40
15
 41
1
 50
0
  1
16
  0
LINE
  8
_0-9_
  6
CONTINUOUS
 62
    7
 10
1316.4723502304146
 20
3287.8981148828634
 11
1374.472350230415
 21
3287.8981148828634
  0
POINT
  8
_0-9_
 62
    7
 10
1374.472350230415
 20
3287.8981148828634
  0
LINE
  8
_0-9_
  6
CONTINUOUS
 62
    7
 10
1374.472350230415
 20
3287.8981148828634
 11
1374.472350230415
 21
3277.9722355030394
  0
TEXT
  8
_0-9_
 62
    7
 10
1337.3473502304148
 20
3288.3981148828634
 40
15
 41
1
 50
0
  1
58
  0
LINE
  8
_0-9_
  6
CONTINUOUS
 62
    7
 10
1374.472350230415
 20
3287.8981148828634
 11
1388.472350230415
 21
3287.8981148828634
  0
POINT
  8
_0-9_
 62
    7
 10
1388.472350230415
 20
3287.8981148828634
  0
LINE
  8
_0-9_
  6
CONTINUOUS
 62
    7
 10
1388.472350230415
 20
3287.8981148828634
 11
1388.472350230415
 21
3277.9722355030394
  0
TEXT
  8
_0-9_
 62
    7
 10
1373.347350230415
 20
3288.3981148828634
 40
15
 41
1
 50
0
  1
14
  0
LINE
  8
_0-9_
  6
CONTINUOUS
 62
    7
 10
1388.472350230415
 20
3287.8981148828634
 11
1446.472350230415
 21
3287.8981148828634
  0
POINT
  8
_0-9_
 62
    7
 10
1446.472350230415
 20
3287.8981148828634
  0
LINE
  8
_0-9_
  6
CONTINUOUS
 62
    7
 10
1446.472350230415
 20
3287.8981148828634
 11
1446.472350230415
 21
3277.9722355030394
  0
TEXT
  8
_0-9_
 62
    7
 10
1409.3473502304153
 20
3288.3981148828634
 40
15
 41
1
 50
0
  1
58
  0
LINE
  8
_0-9_
  6
CONTINUOUS
 62
    7
 10
1446.472350230415
 20
3287.8981148828634
 11
1460.4723502304148
 21
3287.8981148828634
  0
POINT
  8
_0-9_
 62
    7
 10
1460.4723502304148
 20
3287.8981148828634
  0
LINE
  8
_0-9_
  6
CONTINUOUS
 62
    7
 10
1460.4723502304148
 20
3287.8981148828634
 11
1460.4723502304148
 21
3277.9722355030394
  0
TEXT
  8
_0-9_
 62
    7
 10
1445.347350230415
 20
3288.3981148828634
 40
15
 41
1
 50
0
  1
14
  0
LINE
  8
_0-9_
  6
CONTINUOUS
 62
    7
 10
1460.4723502304148
 20
3287.8981148828634
 11
1518.472350230415
 21
3287.8981148828634
  0
POINT
  8
_0-9_
 62
    7
 10
1518.472350230415
 20
3287.8981148828634
  0
LINE
  8
_0-9_
  6
CONTINUOUS
 62
    7
 10
1518.472350230415
 20
3287.8981148828634
 11
1518.472350230415
 21
3277.9722355030394
  0
TEXT
  8
_0-9_
 62
    7
 10
1481.3473502304146
 20
3288.3981148828634
 40
15
 41
1
 50
0
  1
58
  0
LINE
  8
_0-9_
  6
CONTINUOUS
 62
    7
 10
1518.472350230415
 20
3287.8981148828634
 11
1532.4723502304146
 21
3287.8981148828634
  0
POINT
  8
_0-9_
 62
    7
 10
1532.4723502304146
 20
3287.8981148828634
  0
LINE
  8
_0-9_
  6
CONTINUOUS
 62
    7
 10
1532.4723502304146
 20
3287.8981148828634
 11
1532.4723502304146
 21
3277.9722355030394
  0
TEXT
  8
_0-9_
 62
    7
 10
1517.3473502304148
 20
3288.3981148828634
 40
15
 41
1
 50
0
  1
14
  0
LINE
  8
_0-9_
  6
CONTINUOUS
 62
    7
 10
1532.4723502304146
 20
3287.8981148828634
 11
1590.4723502304148
 21
3287.8981148828634
  0
POINT
  8
_0-9_
 62
    7
 10
1590.4723502304148
 20
3287.8981148828634
  0
LINE
  8
_0-9_
  6
CONTINUOUS
 62
    7
 10
1590.4723502304148
 20
3287.8981148828634
 11
1590.4723502304148
 21
3277.9722355030394
  0
TEXT
  8
_0-9_
 62
    7
 10
1553.347350230415
 20
3288.3981148828634
 40
15
 41
1
 50
0
  1
58
  0
LINE
  8
_0-9_
  6
CONTINUOUS
 62
    7
 10
1590.4723502304148
 20
3287.8981148828634
 11
1604.4723502304146
 21
3287.8981148828634
  0
POINT
  8
_0-9_
 62
    7
 10
1604.4723502304146
 20
3287.8981148828634
  0
LINE
  8
_0-9_
  6
CONTINUOUS
 62
    7
 10
1604.4723502304146
 20
3287.8981148828634
 11
1604.4723502304146
 21
3277.9722355030394
  0
TEXT
  8
_0-9_
 62
    7
 10
1589.3473502304146
 20
3288.3981148828634
 40
15
 41
1
 50
0
  1
14
  0
LINE
  8
_0-9_
  6
CONTINUOUS
 62
    7
 10
1604.4723502304146
 20
3287.8981148828634
 11
1662.472350230415
 21
3287.8981148828634
  0
POINT
  8
_0-9_
 62
    7
 10
1662.472350230415
 20
3287.8981148828634
  0
LINE
  8
_0-9_
  6
CONTINUOUS
 62
    7
 10
1662.472350230415
 20
3287.8981148828634
 11
1662.472350230415
 21
3277.9722355030394
  0
TEXT
  8
_0-9_
 62
    7
 10
1625.347350230415
 20
3288.3981148828634
 40
15
 41
1
 50
0
  1
58
  0
LINE
  8
_0-9_
  6
CONTINUOUS
 62
    7
 10
1662.472350230415
 20
3287.8981148828634
 11
1676.472350230415
 21
3287.8981148828634
  0
POINT
  8
_0-9_
 62
    7
 10
1676.472350230415
 20
3287.8981148828634
  0
LINE
  8
_0-9_
  6
CONTINUOUS
 62
    7
 10
1676.472350230415
 20
3287.8981148828634
 11
1676.472350230415
 21
3277.9722355030394
  0
TEXT
  8
_0-9_
 62
    7
 10
1661.347350230415
 20
3288.3981148828634
 40
15
 41
1
 50
0
  1
14
  0
LINE
  8
_0-9_
  6
CONTINUOUS
 62
    7
 10
1676.472350230415
 20
3287.8981148828634
 11
1734.472350230415
 21
3287.8981148828634
  0
POINT
  8
_0-9_
 62
    7
 10
1734.472350230415
 20
3287.8981148828634
  0
LINE
  8
_0-9_
  6
CONTINUOUS
 62
    7
 10
1734.472350230415
 20
3287.8981148828634
 11
1734.472350230415
 21
3277.9722355030394
  0
TEXT
  8
_0-9_
 62
    7
 10
1697.347350230415
 20
3288.3981148828634
 40
15
 41
1
 50
0
  1
58
  0
LINE
  8
_0-9_
  6
CONTINUOUS
 62
    7
 10
1734.472350230415
 20
3287.8981148828634
 11
1750.472350230415
 21
3287.8981148828634
  0
POINT
  8
_0-9_
 62
    7
 10
1750.472350230415
 20
3287.8981148828634
  0
LINE
  8
_0-9_
  6
CONTINUOUS
 62
    7
 10
1750.472350230415
 20
3287.8981148828634
 11
1750.472350230415
 21
3277.9722355030394
  0
TEXT
  8
_0-9_
 62
    7
 10
1734.3473502304146
 20
3288.3981148828634
 40
15
 41
1
 50
0
  1
16
  0
LINE
  8
_0-9_
  6
CONTINUOUS
 62
    7
 10
1300.4723502304148
 20
2963.5493272317467
 11
1314.2223502304148
 21
2963.5493272317467
  0
POINT
  8
_0-9_
 62
    7
 10
1300.4723502304148
 20
2963.5493272317467
  0
POINT
  8
_0-9_
 62
    7
 10
1314.2223502304148
 20
2963.5493272317467
  0
LINE
  8
_0-9_
  6
CONTINUOUS
 62
    7
 10
1300.4723502304148
 20
2963.5493272317467
 11
1300.4723502304148
 21
2956.1049176968791
  0
LINE
  8
_0-9_
  6
CONTINUOUS
 62
    7
 10
1314.2223502304148
 20
2963.5493272317467
 11
1314.2223502304148
 21
2956.1049176968791
  0
TEXT
  8
_0-9_
 62
    7
 10
1299.2223502304148
 20
2964.0493272317467
 40
15
 41
1
 50
0
  1
14
  0
LINE
  8
_0-9_
  6
CONTINUOUS
 62
    7
 10
1314.2223502304148
 20
2963.5493272317467
 11
1369.722350230415
 21
2963.5493272317467
  0
POINT
  8
_0-9_
 62
    7
 10
1369.722350230415
 20
2963.5493272317467
  0
LINE
  8
_0-9_
  6
CONTINUOUS
 62
    7
 10
1369.722350230415
 20
2963.5493272317467
 11
1369.722350230415
 21
2956.1049176968791
  0
TEXT
  8
_0-9_
 62
    7
 10
1333.8473502304146
 20
2964.0493272317467
 40
15
 41
1
 50
0
  1
56
  0
LINE
  8
_0-9_
  6
CONTINUOUS
 62
    7
 10
1369.722350230415
 20
2963.5493272317467
 11
1383.7223502304146
 21
2963.5493272317467
  0
POINT
  8
_0-9_
 62
    7
 10
1383.7223502304146
 20
2963.5493272317467
  0
LINE
  8
_0-9_
  6
CONTINUOUS
 62
    7
 10
1383.7223502304146
 20
2963.5493272317467
 11
1383.7223502304146
 21
2956.1049176968791
  0
TEXT
  8
_0-9_
 62
    7
 10
1368.5973502304148
 20
2964.0493272317467
 40
15
 41
1
 50
0
  1
14
  0
LINE
  8
_0-9_
  6
CONTINUOUS
 62
    7
 10
1383.7223502304146
 20
2963.5493272317467
 11
1439.2223502304148
 21
2963.5493272317467
  0
POINT
  8
_0-9_
 62
    7
 10
1439.2223502304148
 20
2963.5493272317467
  0
LINE
  8
_0-9_
  6
CONTINUOUS
 62
    7
 10
1439.2223502304148
 20
2963.5493272317467
 11
1439.2223502304148
 21
2956.1049176968791
  0
TEXT
  8
_0-9_
 62
    7
 10
1403.347350230415
 20
2964.0493272317467
 40
15
 41
1
 50
0
  1
56
  0
LINE
  8
_0-9_
  6
CONTINUOUS
 62
    7
 10
1439.2223502304148
 20
2963.5493272317467
 11
1453.2223502304169
 21
2963.5493272317467
  0
POINT
  8
_0-9_
 62
    7
 10
1453.2223502304169
 20
2963.5493272317467
  0
LINE
  8
_0-9_
  6
CONTINUOUS
 62
    7
 10
1453.2223502304169
 20
2963.5493272317467
 11
1453.2223502304169
 21
2956.1049176968791
  0
TEXT
  8
_0-9_
 62
    7
 10
1438.0973502304159
 20
2964.0493272317467
 40
15
 41
1
 50
0
  1
14
  0
LINE
  8
_0-9_
  6
CONTINUOUS
 62
    7
 10
1453.2223502304169
 20
2963.5493272317467
 11
1508.7223502304169
 21
2963.5493272317467
  0
POINT
  8
_0-9_
 62
    7
 10
1508.7223502304169
 20
2963.5493272317467
  0
LINE
  8
_0-9_
  6
CONTINUOUS
 62
    7
 10
1508.7223502304169
 20
2963.5493272317467
 11
1508.7223502304169
 21
2956.1049176968791
  0
TEXT
  8
_0-9_
 62
    7
 10
1472.8473502304166
 20
2964.0493272317467
 40
15
 41
1
 50
0
  1
56
  0
LINE
  8
_0-9_
  6
CONTINUOUS
 62
    7
 10
1508.7223502304169
 20
2963.5493272317467
 11
1522.7223502304169
 21
2963.5493272317467
  0
POINT
  8
_0-9_
 62
    7
 10
1522.7223502304169
 20
2963.5493272317467
  0
LINE
  8
_0-9_
  6
CONTINUOUS
 62
    7
 10
1522.7223502304169
 20
2963.5493272317467
 11
1522.7223502304169
 21
2956.1049176968791
  0
TEXT
  8
_0-9_
 62
    7
 10
1507.5973502304169
 20
2964.0493272317467
 40
15
 41
1
 50
0
  1
14
  0
LINE
  8
_0-9_
  6
CONTINUOUS
 62
    7
 10
1522.7223502304169
 20
2963.5493272317467
 11
1578.2223502304169
 21
2963.5493272317467
  0
POINT
  8
_0-9_
 62
    7
 10
1578.2223502304169
 20
2963.5493272317467
  0
LINE
  8
_0-9_
  6
CONTINUOUS
 62
    7
 10
1578.2223502304169
 20
2963.5493272317467
 11
1578.2223502304169
 21
2956.1049176968791
  0
TEXT
  8
_0-9_
 62
    7
 10
1542.3473502304171
 20
2964.0493272317467
 40
15
 41
1
 50
0
  1
56
  0
LINE
  8
_0-9_
  6
CONTINUOUS
 62
    7
 10
1578.2223502304169
 20
2963.5493272317467
 11
1592.222350230415
 21
2963.5493272317467
  0
POINT
  8
_0-9_
 62
    7
 10
1592.222350230415
 20
2963.5493272317467
  0
LINE
  8
_0-9_
  6
CONTINUOUS
 62
    7
 10
1592.222350230415
 20
2963.5493272317467
 11
1592.222350230415
 21
2956.1049176968791
  0
TEXT
  8
_0-9_
 62
    7
 10
1577.0973502304162
 20
2964.0493272317467
 40
15
 41
1
 50
0
  1
14
  0
LINE
  8
_0-9_
  6
CONTINUOUS
 62
    7
 10
1592.222350230415
 20
2963.5493272317467
 11
1647.7223502304132
 21
2963.5493272317467
  0
POINT
  8
_0-9_
 62
    7
 10
1647.7223502304132
 20
2963.5493272317467
  0
LINE
  8
_0-9_
  6
CONTINUOUS
 62
    7
 10
1647.7223502304132
 20
2963.5493272317467
 11
1647.7223502304132
 21
2956.1049176968791
  0
TEXT
  8
_0-9_
 62
    7
 10
1611.8473502304141
 20
2964.0493272317467
 40
15
 41
1
 50
0
  1
56
  0
LINE
  8
_0-9_
  6
CONTINUOUS
 62
    7
 10
1647.7223502304132
 20
2963.5493272317467
 11
1661.722350230415
 21
2963.5493272317467
  0
POINT
  8
_0-9_
 62
    7
 10
1661.722350230415
 20
2963.5493272317467
  0
LINE
  8
_0-9_
  6
CONTINUOUS
 62
    7
 10
1661.722350230415
 20
2963.5493272317467
 11
1661.722350230415
 21
2956.1049176968791
  0
TEXT
  8
_0-9_
 62
    7
 10
1646.5973502304137
 20
2964.0493272317467
 40
15
 41
1
 50
0
  1
14
  0
LINE
  8
_0-9_
  6
CONTINUOUS
 62
    7
 10
1661.722350230415
 20
2963.5493272317467
 11
1717.222350230415
 21
2963.5493272317467
  0
POINT
  8
_0-9_
 62
    7
 10
1717.222350230415
 20
2963.5493272317467
  0
LINE
  8
_0-9_
  6
CONTINUOUS
 62
    7
 10
1717.222350230415
 20
2963.5493272317467
 11
1717.222350230415
 21
2956.1049176968791
  0
TEXT
  8
_0-9_
 62
    7
 10
1681.347350230415
 20
2964.0493272317467
 40
15
 41
1
 50
0
  1
56
  0
LINE
  8
_0-9_
  6
CONTINUOUS
 62
    7
 10
1717.222350230415
 20
2963.5493272317467
 11
1731.2223502304146
 21
2963.5493272317467
  0
POINT
  8
_0-9_
 62
    7
 10
1731.2223502304146
 20
2963.5493272317467
  0
LINE
  8
_0-9_
  6
CONTINUOUS
 62
    7
 10
1731.2223502304146
 20
2963.5493272317467
 11
1731.2223502304146
 21
2956.1049176968791
  0
TEXT
  8
_0-9_
 62
    7
 10
1716.097350230415
 20
2964.0493272317467
 40
15
 41
1
 50
0
  1
14
  0
LINE
  8
_0-9_
  6
CONTINUOUS
 62
    7
 10
1731.2223502304146
 20
2963.5493272317467
 11
1786.722350230415
 21
2963.5493272317467
  0
POINT
  8
_0-9_
 62
    7
 10
1786.722350230415
 20
2963.5493272317467
  0
LINE
  8
_0-9_
  6
CONTINUOUS
 62
    7
 10
1786.722350230415
 20
2963.5493272317467
 11
1786.722350230415
 21
2956.1049176968791
  0
TEXT
  8
_0-9_
 62
    7
 10
1750.847350230415
 20
2964.0493272317467
 40
15
 41
1
 50
0
  1
56
  0
LINE
  8
_0-9_
  6
CONTINUOUS
 62
    7
 10
1786.722350230415
 20
2963.5493272317467
 11
1800.472350230415
 21
2963.5493272317467
  0
POINT
  8
_0-9_
 62
    7
 10
1800.472350230415
 20
2963.5493272317467
  0
LINE
  8
_0-9_
  6
CONTINUOUS
 62
    7
 10
1800.472350230415
 20
2963.5493272317467
 11
1800.472350230415
 21
2956.1049176968791
  0
TEXT
  8
_0-9_
 62
    7
 10
1785.472350230415
 20
2964.0493272317467
 40
15
 41
1
 50
0
  1
14
  0
LINE
  8
_0-9_
  6
CONTINUOUS
 62
    7
 10
1300.4723502304148
 20
2644.0600846936686
 11
1315.4723502304148
 21
2644.0600846936686
  0
POINT
  8
_0-9_
 62
    7
 10
1300.4723502304148
 20
2644.0600846936686
  0
POINT
  8
_0-9_
 62
    7
 10
1315.4723502304148
 20
2644.0600846936686
  0
LINE
  8
_0-9_
  6
CONTINUOUS
 62
    7
 10
1300.4723502304148
 20
2644.0600846936686
 11
1300.4723502304148
 21
2635.7885185438154
  0
LINE
  8
_0-9_
  6
CONTINUOUS
 62
    7
 10
1315.4723502304148
 20
2644.0600846936686
 11
1315.4723502304148
 21
2635.7885185438154
  0
TEXT
  8
_0-9_
 62
    7
 10
1299.8473502304148
 20
2644.5600846936686
 40
15
 41
1
 50
0
  1
15
  0
LINE
  8
_0-9_
  6
CONTINUOUS
 62
    7
 10
1315.4723502304148
 20
2644.0600846936686
 11
1374.4723502304146
 21
2644.0600846936686
  0
POINT
  8
_0-9_
 62
    7
 10
1374.4723502304146
 20
2644.0600846936686
  0
LINE
  8
_0-9_
  6
CONTINUOUS
 62
    7
 10
1374.4723502304146
 20
2644.0600846936686
 11
1374.4723502304146
 21
2635.7885185438154
  0
TEXT
  8
_0-9_
 62
    7
 10
1336.8473502304146
 20
2644.5600846936686
 40
15
 41
1
 50
0
  1
59
  0
LINE
  8
_0-9_
  6
CONTINUOUS
 62
    7
 10
1374.4723502304146
 20
2644.0600846936686
 11
1388.472350230415
 21
2644.0600846936686
  0
POINT
  8
_0-9_
 62
    7
 10
1388.472350230415
 20
2644.0600846936686
  0
LINE
  8
_0-9_
  6
CONTINUOUS
 62
    7
 10
1388.472350230415
 20
2644.0600846936686
 11
1388.472350230415
 21
2635.7885185438154
  0
TEXT
  8
_0-9_
 62
    7
 10
1373.347350230415
 20
2644.5600846936686
 40
15
 41
1
 50
0
  1
14
  0
LINE
  8
_0-9_
  6
CONTINUOUS
 62
    7
 10
1388.472350230415
 20
2644.0600846936686
 11
1447.4723502304146
 21
2644.0600846936686
  0
POINT
  8
_0-9_
 62
    7
 10
1447.4723502304146
 20
2644.0600846936686
  0
LINE
  8
_0-9_
  6
CONTINUOUS
 62
    7
 10
1447.4723502304146
 20
2644.0600846936686
 11
1447.4723502304146
 21
2635.7885185438154
  0
TEXT
  8
_0-9_
 62
    7
 10
1409.8473502304148
 20
2644.5600846936686
 40
15
 41
1
 50
0
  1
59
  0
LINE
  8
_0-9_
  6
CONTINUOUS
 62
    7
 10
1447.4723502304146
 20
2644.0600846936686
 11
1461.4723502304146
 21
2644.0600846936686
  0
POINT
  8
_0-9_
 62
    7
 10
1461.4723502304146
 20
2644.0600846936686
  0
LINE
  8
_0-9_
  6
CONTINUOUS
 62
    7
 10
1461.4723502304146
 20
2644.0600846936686
 11
1461.4723502304146
 21
2635.7885185438154
  0
TEXT
  8
_0-9_
 62
    7
 10
1446.3473502304146
 20
2644.5600846936686
 40
15
 41
1
 50
0
  1
14
  0
LINE
  8
_0-9_
  6
CONTINUOUS
 62
    7
 10
1461.4723502304146
 20
2644.0600846936686
 11
1520.4723502304148
 21
2644.0600846936686
  0
POINT
  8
_0-9_
 62
    7
 10
1520.4723502304148
 20
2644.0600846936686
  0
LINE
  8
_0-9_
  6
CONTINUOUS
 62
    7
 10
1520.4723502304148
 20
2644.0600846936686
 11
1520.4723502304148
 21
2635.7885185438154
  0
TEXT
  8
_0-9_
 62
    7
 10
1482.8473502304143
 20
2644.5600846936686
 40
15
 41
1
 50
0
  1
59
  0
LINE
  8
_0-9_
  6
CONTINUOUS
 62
    7
 10
1520.4723502304148
 20
2644.0600846936686
 11
1534.4723502304146
 21
2644.0600846936686
  0
POINT
  8
_0-9_
 62
    7
 10
1534.4723502304146
 20
2644.0600846936686
  0
LINE
  8
_0-9_
  6
CONTINUOUS
 62
    7
 10
1534.4723502304146
 20
2644.0600846936686
 11
1534.4723502304146
 21
2635.7885185438154
  0
TEXT
  8
_0-9_
 62
    7
 10
1519.3473502304146
 20
2644.5600846936686
 40
15
 41
1
 50
0
  1
14
  0
LINE
  8
_0-9_
  6
CONTINUOUS
 62
    7
 10
1534.4723502304146
 20
2644.0600846936686
 11
1593.472350230415
 21
2644.0600846936686
  0
POINT
  8
_0-9_
 62
    7
 10
1593.472350230415
 20
2644.0600846936686
  0
LINE
  8
_0-9_
  6
CONTINUOUS
 62
    7
 10
1593.472350230415
 20
2644.0600846936686
 11
1593.472350230415
 21
2635.7885185438154
  0
TEXT
  8
_0-9_
 62
    7
 10
1555.847350230415
 20
2644.5600846936686
 40
15
 41
1
 50
0
  1
59
  0
LINE
  8
_0-9_
  6
CONTINUOUS
 62
    7
 10
1593.472350230415
 20
2644.0600846936686
 11
1607.4723502304146
 21
2644.0600846936686
  0
POINT
  8
_0-9_
 62
    7
 10
1607.4723502304146
 20
2644.0600846936686
  0
LINE
  8
_0-9_
  6
CONTINUOUS
 62
    7
 10
1607.4723502304146
 20
2644.0600846936686
 11
1607.4723502304146
 21
2635.7885185438154
  0
TEXT
  8
_0-9_
 62
    7
 10
1592.3473502304148
 20
2644.5600846936686
 40
15
 41
1
 50
0
  1
14
  0
LINE
  8
_0-9_
  6
CONTINUOUS
 62
    7
 10
1607.4723502304146
 20
2644.0600846936686
 11
1666.472350230415
 21
2644.0600846936686
  0
POINT
  8
_0-9_
 62
    7
 10
1666.472350230415
 20
2644.0600846936686
  0
LINE
  8
_0-9_
  6
CONTINUOUS
 62
    7
 10
1666.472350230415
 20
2644.0600846936686
 11
1666.472350230415
 21
2635.7885185438154
  0
TEXT
  8
_0-9_
 62
    7
 10
1628.8473502304146
 20
2644.5600846936686
 40
15
 41
1
 50
0
  1
59
  0
LINE
  8
_0-9_
  6
CONTINUOUS
 62
    7
 10
1666.472350230415
 20
2644.0600846936686
 11
1680.472350230415
 21
2644.0600846936686
  0
POINT
  8
_0-9_
 62
    7
 10
1680.472350230415
 20
2644.0600846936686
  0
LINE
  8
_0-9_
  6
CONTINUOUS
 62
    7
 10
1680.472350230415
 20
2644.0600846936686
 11
1680.472350230415
 21
2635.7885185438154
  0
TEXT
  8
_0-9_
 62
    7
 10
1665.347350230415
 20
2644.5600846936686
 40
15
 41
1
 50
0
  1
14
  0
LINE
  8
_0-9_
  6
CONTINUOUS
 62
    7
 10
1680.472350230415
 20
2644.0600846936686
 11
1739.472350230415
 21
2644.0600846936686
  0
POINT
  8
_0-9_
 62
    7
 10
1739.472350230415
 20
2644.0600846936686
  0
LINE
  8
_0-9_
  6
CONTINUOUS
 62
    7
 10
1739.472350230415
 20
2644.0600846936686
 11
1739.472350230415
 21
2635.7885185438154
  0
TEXT
  8
_0-9_
 62
    7
 10
1701.8473502304146
 20
2644.5600846936686
 40
15
 41
1
 50
0
  1
59
  0
LINE
  8
_0-9_
  6
CONTINUOUS
 62
    7
 10
1739.472350230415
 20
2644.0600846936686
 11
1753.4723502304146
 21
2644.0600846936686
  0
POINT
  8
_0-9_
 62
    7
 10
1753.4723502304146
 20
2644.0600846936686
  0
LINE
  8
_0-9_
  6
CONTINUOUS
 62
    7
 10
1753.4723502304146
 20
2644.0600846936686
 11
1753.4723502304146
 21
2635.7885185438154
  0
TEXT
  8
_0-9_
 62
    7
 10
1738.347350230415
 20
2644.5600846936686
 40
15
 41
1
 50
0
  1
14
  0
LINE
  8
_0-9_
  6
CONTINUOUS
 62
    7
 10
1753.4723502304146
 20
2644.0600846936686
 11
1812.4723502304146
 21
2644.0600846936686
  0
POINT
  8
_0-9_
 62
    7
 10
1812.4723502304146
 20
2644.0600846936686
  0
LINE
  8
_0-9_
  6
CONTINUOUS
 62
    7
 10
1812.4723502304146
 20
2644.0600846936686
 11
1812.4723502304146
 21
2635.7885185438154
  0
TEXT
  8
_0-9_
 62
    7
 10
1774.847350230415
 20
2644.5600846936686
 40
15
 41
1
 50
0
  1
59
  0
LINE
  8
_0-9_
  6
CONTINUOUS
 62
    7
 10
1812.4723502304146
 20
2644.0600846936686
 11
1826.472350230415
 21
2644.0600846936686
  0
POINT
  8
_0-9_
 62
    7
 10
1826.472350230415
 20
2644.0600846936686
  0
LINE
  8
_0-9_
  6
CONTINUOUS
 62
    7
 10
1826.472350230415
 20
2644.0600846936686
 11
1826.472350230415
 21
2635.7885185438154
  0
TEXT
  8
_0-9_
 62
    7
 10
1811.347350230415
 20
2644.5600846936686
 40
15
 41
1
 50
0
  1
14
  0
LINE
  8
_0-9_
  6
CONTINUOUS
 62
    7
 10
1826.472350230415
 20
2644.0600846936686
 11
1885.472350230415
 21
2644.0600846936686
  0
POINT
  8
_0-9_
 62
    7
 10
1885.472350230415
 20
2644.0600846936686
  0
LINE
  8
_0-9_
  6
CONTINUOUS
 62
    7
 10
1885.472350230415
 20
2644.0600846936686
 11
1885.472350230415
 21
2635.7885185438154
  0
TEXT
  8
_0-9_
 62
    7
 10
1847.847350230415
 20
2644.5600846936686
 40
15
 41
1
 50
0
  1
59
  0
LINE
  8
_0-9_
  6
CONTINUOUS
 62
    7
 10
1885.472350230415
 20
2644.0600846936686
 11
1900.472350230415
 21
2644.0600846936686
  0
POINT
  8
_0-9_
 62
    7
 10
1900.472350230415
 20
2644.0600846936686
  0
LINE
  8
_0-9_
  6
CONTINUOUS
 62
    7
 10
1900.472350230415
 20
2644.0600846936686
 11
1900.472350230415
 21
2635.7885185438154
  0
TEXT
  8
_0-9_
 62
    7
 10
1884.847350230415
 20
2644.5600846936686
 40
15
 41
1
 50
0
  1
15
  0
LINE
  8
_0-9_
  6
CONTINUOUS
 62
    7
 10
2400.472350230415
 20
2660.3964278396284
 11
2415.5723502304145
 21
2660.3964278396284
  0
POINT
  8
_0-9_
 62
    7
 10
2400.472350230415
 20
2660.3964278396284
  0
POINT
  8
_0-9_
 62
    7
 10
2415.5723502304145
 20
2660.3964278396284
  0
LINE
  8
_0-9_
  6
CONTINUOUS
 62
    7
 10
2400.472350230415
 20
2660.3964278396284
 11
2400.472350230415
 21
2650.4705484598048
  0
LINE
  8
_0-9_
  6
CONTINUOUS
 62
    7
 10
2415.5723502304145
 20
2660.3964278396284
 11
2415.5723502304145
 21
2650.4705484598048
  0
TEXT
  8
_0-9_
 62
    7
 10
2399.8973502304148
 20
2660.8964278396288
 40
15
 41
1
 50
0
  1
15
  0
LINE
  8
_0-9_
  6
CONTINUOUS
 62
    7
 10
2415.5723502304145
 20
2660.3964278396284
 11
2473.6723502304148
 21
2660.3964278396284
  0
POINT
  8
_0-9_
 62
    7
 10
2473.6723502304148
 20
2660.3964278396284
  0
LINE
  8
_0-9_
  6
CONTINUOUS
 62
    7
 10
2473.6723502304148
 20
2660.3964278396284
 11
2473.6723502304148
 21
2650.4705484598048
  0
TEXT
  8
_0-9_
 62
    7
 10
2436.4973502304147
 20
2660.8964278396288
 40
15
 41
1
 50
0
  1
58
  0
LINE
  8
_0-9_
  6
CONTINUOUS
 62
    7
 10
2473.6723502304148
 20
2660.3964278396284
 11
2488.6723502304148
 21
2660.3964278396284
  0
POINT
  8
_0-9_
 62
    7
 10
2488.6723502304148
 20
2660.3964278396284
  0
LINE
  8
_0-9_
  6
CONTINUOUS
 62
    7
 10
2488.6723502304148
 20
2660.3964278396284
 11
2488.6723502304148
 21
2650.4705484598048
  0
TEXT
  8
_0-9_
 62
    7
 10
2473.0473502304148
 20
2660.8964278396288
 40
15
 41
1
 50
0
  1
15
  0
LINE
  8
_0-9_
  6
CONTINUOUS
 62
    7
 10
2488.6723502304148
 20
2660.3964278396284
 11
2546.7723502304152
 21
2660.3964278396284
  0
POINT
  8
_0-9_
 62
    7
 10
2546.7723502304152
 20
2660.3964278396284
  0
LINE
  8
_0-9_
  6
CONTINUOUS
 62
    7
 10
2546.7723502304152
 20
2660.3964278396284
 11
2546.7723502304152
 21
2650.4705484598048
  0
TEXT
  8
_0-9_
 62
    7
 10
2509.597350230415
 20
2660.8964278396288
 40
15
 41
1
 50
0
  1
58
  0
LINE
  8
_0-9_
  6
CONTINUOUS
 62
    7
 10
2546.7723502304152
 20
2660.3964278396284
 11
2561.7723502304148
 21
2660.3964278396284
  0
POINT
  8
_0-9_
 62
    7
 10
2561.7723502304148
 20
2660.3964278396284
  0
LINE
  8
_0-9_
  6
CONTINUOUS
 62
    7
 10
2561.7723502304148
 20
2660.3964278396284
 11
2561.7723502304148
 21
2650.4705484598048
  0
TEXT
  8
_0-9_
 62
    7
 10
2546.1473502304148
 20
2660.8964278396288
 40
15
 41
1
 50
0
  1
15
  0
LINE
  8
_0-9_
  6
CONTINUOUS
 62
    7
 10
2561.7723502304148
 20
2660.3964278396284
 11
2619.8723502304147
 21
2660.3964278396284
  0
POINT
  8
_0-9_
 62
    7
 10
2619.8723502304147
 20
2660.3964278396284
  0
LINE
  8
_0-9_
  6
CONTINUOUS
 62
    7
 10
2619.8723502304147
 20
2660.3964278396284
 11
2619.8723502304147
 21
2650.4705484598048
  0
TEXT
  8
_0-9_
 62
    7
 10
2582.6973502304145
 20
2660.8964278396288
 40
15
 41
1
 50
0
  1
58
  0
LINE
  8
_0-9_
  6
CONTINUOUS
 62
    7
 10
2619.8723502304147
 20
2660.3964278396284
 11
2634.8723502304147
 21
2660.3964278396284
  0
POINT
  8
_0-9_
 62
    7
 10
2634.8723502304147
 20
2660.3964278396284
  0
LINE
  8
_0-9_
  6
CONTINUOUS
 62
    7
 10
2634.8723502304147
 20
2660.3964278396284
 11
2634.8723502304147
 21
2650.4705484598048
  0
TEXT
  8
_0-9_
 62
    7
 10
2619.2473502304147
 20
2660.8964278396288
 40
15
 41
1
 50
0
  1
15
  0
LINE
  8
_0-9_
  6
CONTINUOUS
 62
    7
 10
2634.8723502304147
 20
2660.3964278396284
 11
2692.972350230415
 21
2660.3964278396284
  0
POINT
  8
_0-9_
 62
    7
 10
2692.972350230415
 20
2660.3964278396284
  0
LINE
  8
_0-9_
  6
CONTINUOUS
 62
    7
 10
2692.972350230415
 20
2660.3964278396284
 11
2692.972350230415
 21
2650.4705484598048
  0
TEXT
  8
_0-9_
 62
    7
 10
2655.7973502304148
 20
2660.8964278396288
 40
15
 41
1
 50
0
  1
58
  0
LINE
  8
_0-9_
  6
CONTINUOUS
 62
    7
 10
2692.972350230415
 20
2660.3964278396284
 11
2707.972350230415
 21
2660.3964278396284
  0
POINT
  8
_0-9_
 62
    7
 10
2707.972350230415
 20
2660.3964278396284
  0
LINE
  8
_0-9_
  6
CONTINUOUS
 62
    7
 10
2707.972350230415
 20
2660.3964278396284
 11
2707.972350230415
 21
2650.4705484598048
  0
TEXT
  8
_0-9_
 62
    7
 10
2692.347350230415
 20
2660.8964278396288
 40
15
 41
1
 50
0
  1
15
  0
LINE
  8
_0-9_
  6
CONTINUOUS
 62
    7
 10
2707.972350230415
 20
2660.3964278396284
 11
2766.0723502304149
 21
2660.3964278396284
  0
POINT
  8
_0-9_
 62
    7
 10
2766.0723502304149
 20
2660.3964278396284
  0
LINE
  8
_0-9_
  6
CONTINUOUS
 62
    7
 10
2766.0723502304149
 20
2660.3964278396284
 11
2766.0723502304149
 21
2650.4705484598048
  0
TEXT
  8
_0-9_
 62
    7
 10
2728.8973502304143
 20
2660.8964278396288
 40
15
 41
1
 50
0
  1
58
  0
LINE
  8
_0-9_
  6
CONTINUOUS
 62
    7
 10
2766.0723502304149
 20
2660.3964278396284
 11
2781.0723502304149
 21
2660.3964278396284
  0
POINT
  8
_0-9_
 62
    7
 10
2781.0723502304149
 20
2660.3964278396284
  0
LINE
  8
_0-9_
  6
CONTINUOUS
 62
    7
 10
2781.0723502304149
 20
2660.3964278396284
 11
2781.0723502304149
 21
2650.4705484598048
  0
TEXT
  8
_0-9_
 62
    7
 10
2765.4473502304149
 20
2660.8964278396288
 40
15
 41
1
 50
0
  1
15
  0
LINE
  8
_0-9_
  6
CONTINUOUS
 62
    7
 10
2781.0723502304149
 20
2660.3964278396284
 11
2839.1723502304148
 21
2660.3964278396284
  0
POINT
  8
_0-9_
 62
    7
 10
2839.1723502304148
 20
2660.3964278396284
  0
LINE
  8
_0-9_
  6
CONTINUOUS
 62
    7
 10
2839.1723502304148
 20
2660.3964278396284
 11
2839.1723502304148
 21
2650.4705484598048
  0
TEXT
  8
_0-9_
 62
    7
 10
2801.9973502304151
 20
2660.8964278396288
 40
15
 41
1
 50
0
  1
58
  0
LINE
  8
_0-9_
  6
CONTINUOUS
 62
    7
 10
2839.1723502304148
 20
2660.3964278396284
 11
2854.1723502304148
 21
2660.3964278396284
  0
POINT
  8
_0-9_
 62
    7
 10
2854.1723502304148
 20
2660.3964278396284
  0
LINE
  8
_0-9_
  6
CONTINUOUS
 62
    7
 10
2854.1723502304148
 20
2660.3964278396284
 11
2854.1723502304148
 21
2650.4705484598048
  0
TEXT
  8
_0-9_
 62
    7
 10
2838.5473502304148
 20
2660.8964278396288
 40
15
 41
1
 50
0
  1
15
  0
LINE
  8
_0-9_
  6
CONTINUOUS
 62
    7
 10
2854.1723502304148
 20
2660.3964278396284
 11
2912.2723502304148
 21
2660.3964278396284
  0
POINT
  8
_0-9_
 62
    7
 10
2912.2723502304148
 20
2660.3964278396284
  0
LINE
  8
_0-9_
  6
CONTINUOUS
 62
    7
 10
2912.2723502304148
 20
2660.3964278396284
 11
2912.2723502304148
 21
2650.4705484598048
  0
TEXT
  8
_0-9_
 62
    7
 10
2875.0973502304146
 20
2660.8964278396288
 40
15
 41
1
 50
0
  1
58
  0
LINE
  8
_0-9_
  6
CONTINUOUS
 62
    7
 10
2912.2723502304148
 20
2660.3964278396284
 11
2927.2723502304148
 21
2660.3964278396284
  0
POINT
  8
_0-9_
 62
    7
 10
2927.2723502304148
 20
2660.3964278396284
  0
LINE
  8
_0-9_
  6
CONTINUOUS
 62
    7
 10
2927.2723502304148
 20
2660.3964278396284
 11
2927.2723502304148
 21
2650.4705484598048
  0
TEXT
  8
_0-9_
 62
    7
 10
2911.6473502304148
 20
2660.8964278396288
 40
15
 41
1
 50
0
  1
15
  0
LINE
  8
_0-9_
  6
CONTINUOUS
 62
    7
 10
2927.2723502304148
 20
2660.3964278396284
 11
2985.3723502304147
 21
2660.3964278396284
  0
POINT
  8
_0-9_
 62
    7
 10
2985.3723502304147
 20
2660.3964278396284
  0
LINE
  8
_0-9_
  6
CONTINUOUS
 62
    7
 10
2985.3723502304147
 20
2660.3964278396284
 11
2985.3723502304147
 21
2650.4705484598048
  0
TEXT
  8
_0-9_
 62
    7
 10
2948.1973502304154
 20
2660.8964278396288
 40
15
 41
1
 50
0
  1
58
  0
LINE
  8
_0-9_
  6
CONTINUOUS
 62
    7
 10
2985.3723502304147
 20
2660.3964278396284
 11
3000.472350230415
 21
2660.3964278396284
  0
POINT
  8
_0-9_
 62
    7
 10
3000.472350230415
 20
2660.3964278396284
  0
LINE
  8
_0-9_
  6
CONTINUOUS
 62
    7
 10
3000.472350230415
 20
2660.3964278396284
 11
3000.472350230415
 21
2650.4705484598048
  0
TEXT
  8
_0-9_
 62
    7
 10
2984.7973502304148
 20
2660.8964278396288
 40
15
 41
1
 50
0
  1
15
  0
LINE
  8
_0-9_
  6
CONTINUOUS
 62
    7
 10
2400.472350230415
 20
2982.2637456457896
 11
2415.7723502304143
 21
2982.2637456457896
  0
POINT
  8
_0-9_
 62
    7
 10
2400.472350230415
 20
2982.2637456457896
  0
POINT
  8
_0-9_
 62
    7
 10
2415.7723502304143
 20
2982.2637456457896
  0
LINE
  8
_0-9_
  6
CONTINUOUS
 62
    7
 10
2400.472350230415
 20
2982.2637456457896
 11
2400.472350230415
 21
2973.1650228809508
  0
LINE
  8
_0-9_
  6
CONTINUOUS
 62
    7
 10
2415.7723502304143
 20
2982.2637456457896
 11
2415.7723502304143
 21
2973.1650228809508
  0
TEXT
  8
_0-9_
 62
    7
 10
2399.9973502304147
 20
2982.7637456457892
 40
15
 41
1
 50
0
  1
15
  0
LINE
  8
_0-9_
  6
CONTINUOUS
 62
    7
 10
2415.7723502304143
 20
2982.2637456457896
 11
2469.9723502304146
 21
2982.2637456457896
  0
POINT
  8
_0-9_
 62
    7
 10
2469.9723502304146
 20
2982.2637456457896
  0
LINE
  8
_0-9_
  6
CONTINUOUS
 62
    7
 10
2469.9723502304146
 20
2982.2637456457896
 11
2469.9723502304146
 21
2973.1650228809508
  0
TEXT
  8
_0-9_
 62
    7
 10
2434.7473502304147
 20
2982.7637456457892
 40
15
 41
1
 50
0
  1
54
  0
LINE
  8
_0-9_
  6
CONTINUOUS
 62
    7
 10
2469.9723502304146
 20
2982.2637456457896
 11
2484.9723502304146
 21
2982.2637456457896
  0
POINT
  8
_0-9_
 62
    7
 10
2484.9723502304146
 20
2982.2637456457896
  0
LINE
  8
_0-9_
  6
CONTINUOUS
 62
    7
 10
2484.9723502304146
 20
2982.2637456457896
 11
2484.9723502304146
 21
2973.1650228809508
  0
TEXT
  8
_0-9_
 62
    7
 10
2469.3473502304146
 20
2982.7637456457892
 40
15
 41
1
 50
0
  1
15
  0
LINE
  8
_0-9_
  6
CONTINUOUS
 62
    7
 10
2484.9723502304146
 20
2982.2637456457896
 11
2539.1723502304148
 21
2982.2637456457896
  0
POINT
  8
_0-9_
 62
    7
 10
2539.1723502304148
 20
2982.2637456457896
  0
LINE
  8
_0-9_
  6
CONTINUOUS
 62
    7
 10
2539.1723502304148
 20
2982.2637456457896
 11
2539.1723502304148
 21
2973.1650228809508
  0
TEXT
  8
_0-9_
 62
    7
 10
2503.9473502304149
 20
2982.7637456457892
 40
15
 41
1
 50
0
  1
54
  0
LINE
  8
_0-9_
  6
CONTINUOUS
 62
    7
 10
2539.1723502304148
 20
2982.2637456457896
 11
2554.1723502304148
 21
2982.2637456457896
  0
POINT
  8
_0-9_
 62
    7
 10
2554.1723502304148
 20
2982.2637456457896
  0
LINE
  8
_0-9_
  6
CONTINUOUS
 62
    7
 10
2554.1723502304148
 20
2982.2637456457896
 11
2554.1723502304148
 21
2973.1650228809508
  0
TEXT
  8
_0-9_
 62
    7
 10
2538.5473502304148
 20
2982.7637456457892
 40
15
 41
1
 50
0
  1
15
  0
LINE
  8
_0-9_
  6
CONTINUOUS
 62
    7
 10
2554.1723502304148
 20
2982.2637456457896
 11
2608.3723502304151
 21
2982.2637456457896
  0
POINT
  8
_0-9_
 62
    7
 10
2608.3723502304151
 20
2982.2637456457896
  0
LINE
  8
_0-9_
  6
CONTINUOUS
 62
    7
 10
2608.3723502304151
 20
2982.2637456457896
 11
2608.3723502304151
 21
2973.1650228809508
  0
TEXT
  8
_0-9_
 62
    7
 10
2573.1473502304152
 20
2982.7637456457892
 40
15
 41
1
 50
0
  1
54
  0
LINE
  8
_0-9_
  6
CONTINUOUS
 62
    7
 10
2608.3723502304151
 20
2982.2637456457896
 11
2623.3723502304151
 21
2982.2637456457896
  0
POINT
  8
_0-9_
 62
    7
 10
2623.3723502304151
 20
2982.2637456457896
  0
LINE
  8
_0-9_
  6
CONTINUOUS
 62
    7
 10
2623.3723502304151
 20
2982.2637456457896
 11
2623.3723502304151
 21
2973.1650228809508
  0
TEXT
  8
_0-9_
 62
    7
 10
2607.7473502304151
 20
2982.7637456457892
 40
15
 41
1
 50
0
  1
15
  0
LINE
  8
_0-9_
  6
CONTINUOUS
 62
    7
 10
2623.3723502304151
 20
2982.2637456457896
 11
2677.5723502304154
 21
2982.2637456457896
  0
POINT
  8
_0-9_
 62
    7
 10
2677.5723502304154
 20
2982.2637456457896
  0
LINE
  8
_0-9_
  6
CONTINUOUS
 62
    7
 10
2677.5723502304154
 20
2982.2637456457896
 11
2677.5723502304154
 21
2973.1650228809508
  0
TEXT
  8
_0-9_
 62
    7
 10
2642.347350230415
 20
2982.7637456457892
 40
15
 41
1
 50
0
  1
54
  0
LINE
  8
_0-9_
  6
CONTINUOUS
 62
    7
 10
2677.5723502304154
 20
2982.2637456457896
 11
2692.5723502304154
 21
2982.2637456457896
  0
POINT
  8
_0-9_
 62
    7
 10
2692.5723502304154
 20
2982.2637456457896
  0
LINE
  8
_0-9_
  6
CONTINUOUS
 62
    7
 10
2692.5723502304154
 20
2982.2637456457896
 11
2692.5723502304154
 21
2973.1650228809508
  0
TEXT
  8
_0-9_
 62
    7
 10
2676.9473502304154
 20
2982.7637456457892
 40
15
 41
1
 50
0
  1
15
  0
LINE
  8
_0-9_
  6
CONTINUOUS
 62
    7
 10
2692.5723502304154
 20
2982.2637456457896
 11
2746.7723502304152
 21
2982.2637456457896
  0
POINT
  8
_0-9_
 62
    7
 10
2746.7723502304152
 20
2982.2637456457896
  0
LINE
  8
_0-9_
  6
CONTINUOUS
 62
    7
 10
2746.7723502304152
 20
2982.2637456457896
 11
2746.7723502304152
 21
2973.1650228809508
  0
TEXT
  8
_0-9_
 62
    7
 10
2711.5473502304158
 20
2982.7637456457892
 40
15
 41
1
 50
0
  1
54
  0
LINE
  8
_0-9_
  6
CONTINUOUS
 62
    7
 10
2746.7723502304152
 20
2982.2637456457896
 11
2761.7723502304148
 21
2982.2637456457896
  0
POINT
  8
_0-9_
 62
    7
 10
2761.7723502304148
 20
2982.2637456457896
  0
LINE
  8
_0-9_
  6
CONTINUOUS
 62
    7
 10
2761.7723502304148
 20
2982.2637456457896
 11
2761.7723502304148
 21
2973.1650228809508
  0
TEXT
  8
_0-9_
 62
    7
 10
2746.1473502304152
 20
2982.7637456457892
 40
15
 41
1
 50
0
  1
15
  0
LINE
  8
_0-9_
  6
CONTINUOUS
 62
    7
 10
2761.7723502304148
 20
2982.2637456457896
 11
2815.972350230415
 21
2982.2637456457896
  0
POINT
  8
_0-9_
 62
    7
 10
2815.972350230415
 20
2982.2637456457896
  0
LINE
  8
_0-9_
  6
CONTINUOUS
 62
    7
 10
2815.972350230415
 20
2982.2637456457896
 11
2815.972350230415
 21
2973.1650228809508
  0
TEXT
  8
_0-9_
 62
    7
 10
2780.7473502304151
 20
2982.7637456457892
 40
15
 41
1
 50
0
  1
54
  0
LINE
  8
_0-9_
  6
CONTINUOUS
 62
    7
 10
2815.972350230415
 20
2982.2637456457896
 11
2830.972350230415
 21
2982.2637456457896
  0
POINT
  8
_0-9_
 62
    7
 10
2830.972350230415
 20
2982.2637456457896
  0
LINE
  8
_0-9_
  6
CONTINUOUS
 62
    7
 10
2830.972350230415
 20
2982.2637456457896
 11
2830.972350230415
 21
2973.1650228809508
  0
TEXT
  8
_0-9_
 62
    7
 10
2815.347350230415
 20
2982.7637456457892
 40
15
 41
1
 50
0
  1
15
  0
LINE
  8
_0-9_
  6
CONTINUOUS
 62
    7
 10
2830.972350230415
 20
2982.2637456457896
 11
2885.1723502304148
 21
2982.2637456457896
  0
POINT
  8
_0-9_
 62
    7
 10
2885.1723502304148
 20
2982.2637456457896
  0
LINE
  8
_0-9_
  6
CONTINUOUS
 62
    7
 10
2885.1723502304148
 20
2982.2637456457896
 11
2885.1723502304148
 21
2973.1650228809508
  0
TEXT
  8
_0-9_
 62
    7
 10
2849.9473502304145
 20
2982.7637456457892
 40
15
 41
1
 50
0
  1
54
  0
LINE
  8
_0-9_
  6
CONTINUOUS
 62
    7
 10
2885.1723502304148
 20
2982.2637456457896
 11
2900.472350230415
 21
2982.2637456457896
  0
POINT
  8
_0-9_
 62
    7
 10
2900.472350230415
 20
2982.2637456457896
  0
LINE
  8
_0-9_
  6
CONTINUOUS
 62
    7
 10
2900.472350230415
 20
2982.2637456457896
 11
2900.472350230415
 21
2973.1650228809508
  0
TEXT
  8
_0-9_
 62
    7
 10
2884.6973502304149
 20
2982.7637456457892
 40
15
 41
1
 50
0
  1
15
  0
LINE
  8
_0-9_
  6
CONTINUOUS
 62
    7
 10
2400.472350230415
 20
3304.0276688750773
 11
2415.472350230415
 21
3304.0276688750773
  0
POINT
  8
_0-9_
 62
    7
 10
2400.472350230415
 20
3304.0276688750773
  0
POINT
  8
_0-9_
 62
    7
 10
2415.472350230415
 20
3304.0276688750773
  0
LINE
  8
_0-9_
  6
CONTINUOUS
 62
    7
 10
2400.472350230415
 20
3304.0276688750773
 11
2400.472350230415
 21
3294.9289461102389
  0
LINE
  8
_0-9_
  6
CONTINUOUS
 62
    7
 10
2415.472350230415
 20
3304.0276688750773
 11
2415.472350230415
 21
3294.9289461102389
  0
TEXT
  8
_0-9_
 62
    7
 10
2399.847350230415
 20
3304.5276688750773
 40
15
 41
1
 50
0
  1
15
  0
LINE
  8
_0-9_
  6
CONTINUOUS
 62
    7
 10
2415.472350230415
 20
3304.0276688750773
 11
2472.972350230415
 21
3304.0276688750773
  0
POINT
  8
_0-9_
 62
    7
 10
2472.972350230415
 20
3304.0276688750773
  0
LINE
  8
_0-9_
  6
CONTINUOUS
 62
    7
 10
2472.972350230415
 20
3304.0276688750773
 11
2472.972350230415
 21
3294.9289461102389
  0
TEXT
  8
_0-9_
 62
    7
 10
2436.097350230415
 20
3304.5276688750773
 40
15
 41
1
 50
0
  1
58
  0
LINE
  8
_0-9_
  6
CONTINUOUS
 62
    7
 10
2472.972350230415
 20
3304.0276688750773
 11
2487.972350230415
 21
3304.0276688750773
  0
POINT
  8
_0-9_
 62
    7
 10
2487.972350230415
 20
3304.0276688750773
  0
LINE
  8
_0-9_
  6
CONTINUOUS
 62
    7
 10
2487.972350230415
 20
3304.0276688750773
 11
2487.972350230415
 21
3294.9289461102389
  0
TEXT
  8
_0-9_
 62
    7
 10
2472.347350230415
 20
3304.5276688750773
 40
15
 41
1
 50
0
  1
15
  0
LINE
  8
_0-9_
  6
CONTINUOUS
 62
    7
 10
2487.972350230415
 20
3304.0276688750773
 11
2545.472350230415
 21
3304.0276688750773
  0
POINT
  8
_0-9_
 62
    7
 10
2545.472350230415
 20
3304.0276688750773
  0
LINE
  8
_0-9_
  6
CONTINUOUS
 62
    7
 10
2545.472350230415
 20
3304.0276688750773
 11
2545.472350230415
 21
3294.9289461102389
  0
TEXT
  8
_0-9_
 62
    7
 10
2508.597350230415
 20
3304.5276688750773
 40
15
 41
1
 50
0
  1
58
  0
LINE
  8
_0-9_
  6
CONTINUOUS
 62
    7
 10
2545.472350230415
 20
3304.0276688750773
 11
2560.472350230415
 21
3304.0276688750773
  0
POINT
  8
_0-9_
 62
    7
 10
2560.472350230415
 20
3304.0276688750773
  0
LINE
  8
_0-9_
  6
CONTINUOUS
 62
    7
 10
2560.472350230415
 20
3304.0276688750773
 11
2560.472350230415
 21
3294.9289461102389
  0
TEXT
  8
_0-9_
 62
    7
 10
2544.847350230415
 20
3304.5276688750773
 40
15
 41
1
 50
0
  1
15
  0
LINE
  8
_0-9_
  6
CONTINUOUS
 62
    7
 10
2560.472350230415
 20
3304.0276688750773
 11
2617.972350230415
 21
3304.0276688750773
  0
POINT
  8
_0-9_
 62
    7
 10
2617.972350230415
 20
3304.0276688750773
  0
LINE
  8
_0-9_
  6
CONTINUOUS
 62
    7
 10
2617.972350230415
 20
3304.0276688750773
 11
2617.972350230415
 21
3294.9289461102389
  0
TEXT
  8
_0-9_
 62
    7
 10
2581.097350230415
 20
3304.5276688750773
 40
15
 41
1
 50
0
  1
58
  0
LINE
  8
_0-9_
  6
CONTINUOUS
 62
    7
 10
2617.972350230415
 20
3304.0276688750773
 11
2632.972350230415
 21
3304.0276688750773
  0
POINT
  8
_0-9_
 62
    7
 10
2632.972350230415
 20
3304.0276688750773
  0
LINE
  8
_0-9_
  6
CONTINUOUS
 62
    7
 10
2632.972350230415
 20
3304.0276688750773
 11
2632.972350230415
 21
3294.9289461102389
  0
TEXT
  8
_0-9_
 62
    7
 10
2617.347350230415
 20
3304.5276688750773
 40
15
 41
1
 50
0
  1
15
  0
LINE
  8
_0-9_
  6
CONTINUOUS
 62
    7
 10
2632.972350230415
 20
3304.0276688750773
 11
2690.472350230415
 21
3304.0276688750773
  0
POINT
  8
_0-9_
 62
    7
 10
2690.472350230415
 20
3304.0276688750773
  0
LINE
  8
_0-9_
  6
CONTINUOUS
 62
    7
 10
2690.472350230415
 20
3304.0276688750773
 11
2690.472350230415
 21
3294.9289461102389
  0
TEXT
  8
_0-9_
 62
    7
 10
2653.597350230415
 20
3304.5276688750773
 40
15
 41
1
 50
0
  1
58
  0
LINE
  8
_0-9_
  6
CONTINUOUS
 62
    7
 10
2690.472350230415
 20
3304.0276688750773
 11
2705.472350230415
 21
3304.0276688750773
  0
POINT
  8
_0-9_
 62
    7
 10
2705.472350230415
 20
3304.0276688750773
  0
LINE
  8
_0-9_
  6
CONTINUOUS
 62
    7
 10
2705.472350230415
 20
3304.0276688750773
 11
2705.472350230415
 21
3294.9289461102389
  0
TEXT
  8
_0-9_
 62
    7
 10
2689.847350230415
 20
3304.5276688750773
 40
15
 41
1
 50
0
  1
15
  0
LINE
  8
_0-9_
  6
CONTINUOUS
 62
    7
 10
2705.472350230415
 20
3304.0276688750773
 11
2762.972350230415
 21
3304.0276688750773
  0
POINT
  8
_0-9_
 62
    7
 10
2762.972350230415
 20
3304.0276688750773
  0
LINE
  8
_0-9_
  6
CONTINUOUS
 62
    7
 10
2762.972350230415
 20
3304.0276688750773
 11
2762.972350230415
 21
3294.9289461102389
  0
TEXT
  8
_0-9_
 62
    7
 10
2726.097350230415
 20
3304.5276688750773
 40
15
 41
1
 50
0
  1
58
  0
LINE
  8
_0-9_
  6
CONTINUOUS
 62
    7
 10
2762.972350230415
 20
3304.0276688750773
 11
2777.972350230415
 21
3304.0276688750773
  0
POINT
  8
_0-9_
 62
    7
 10
2777.972350230415
 20
3304.0276688750773
  0
LINE
  8
_0-9_
  6
CONTINUOUS
 62
    7
 10
2777.972350230415
 20
3304.0276688750773
 11
2777.972350230415
 21
3294.9289461102389
  0
TEXT
  8
_0-9_
 62
    7
 10
2762.347350230415
 20
3304.5276688750773
 40
15
 41
1
 50
0
  1
15
  0
LINE
  8
_0-9_
  6
CONTINUOUS
 62
    7
 10
2777.972350230415
 20
3304.0276688750773
 11
2835.472350230415
 21
3304.0276688750773
  0
POINT
  8
_0-9_
 62
    7
 10
2835.472350230415
 20
3304.0276688750773
  0
LINE
  8
_0-9_
  6
CONTINUOUS
 62
    7
 10
2835.472350230415
 20
3304.0276688750773
 11
2835.472350230415
 21
3294.9289461102389
  0
TEXT
  8
_0-9_
 62
    7
 10
2798.597350230415
 20
3304.5276688750773
 40
15
 41
1
 50
0
  1
58
  0
LINE
  8
_0-9_
  6
CONTINUOUS
 62
    7
 10
2835.472350230415
 20
3304.0276688750773
 11
2850.472350230415
 21
3304.0276688750773
  0
POINT
  8
_0-9_
 62
    7
 10
2850.472350230415
 20
3304.0276688750773
  0
LINE
  8
_0-9_
  6
CONTINUOUS
 62
    7
 10
2850.472350230415
 20
3304.0276688750773
 11
2850.472350230415
 21
3294.9289461102389
  0
TEXT
  8
_0-9_
 62
    7
 10
2834.847350230415
 20
3304.5276688750773
 40
15
 41
1
 50
0
  1
15
  0
LINE
  8
_0-9_
  6
CONTINUOUS
 62
    7
 10
1425.8890376340419
 20
3259.5506912442397
 11
1425.8890376340419
 21
3246.5506912442397
  0
POINT
  8
_0-9_
 62
    7
 10
1425.8890376340419
 20
3259.5506912442397
  0
POINT
  8
_0-9_
 62
    7
 10
1425.8890376340419
 20
3246.5506912442397
  0
TEXT
  8
_0-9_
 62
    7
 10
1425.3890376340416
 20
3244.9256912442393
 40
15
 41
1
 50
90
  1
13
  0
LINE
  8
_0-9_
  6
CONTINUOUS
 62
    7
 10
1425.8890376340419
 20
3246.5506912442397
 11
1425.8890376340419
 21
3212.5506912442397
  0
POINT
  8
_0-9_
 62
    7
 10
1425.8890376340419
 20
3212.5506912442397
  0
TEXT
  8
_0-9_
 62
    7
 10
1425.3890376340416
 20
3221.4256912442397
 40
15
 41
1
 50
90
  1
34
  0
LINE
  8
_0-9_
  6
CONTINUOUS
 62
    7
 10
1425.8890376340419
 20
3212.5506912442397
 11
1425.8890376340419
 21
3199.5506912442397
  0
POINT
  8
_0-9_
 62
    7
 10
1425.8890376340419
 20
3199.5506912442397
  0
TEXT
  8
_0-9_
 62
    7
 10
1425.3890376340416
 20
3197.9256912442397
 40
15
 41
1
 50
90
  1
13
  0
LINE
  8
_0-9_
  6
CONTINUOUS
 62
    7
 10
1425.8890376340419
 20
2939.5506912442397
 11
1425.8890376340419
 21
2926.5506912442415
  0
POINT
  8
_0-9_
 62
    7
 10
1425.8890376340419
 20
2939.5506912442397
  0
POINT
  8
_0-9_
 62
    7
 10
1425.8890376340419
 20
2926.5506912442415
  0
TEXT
  8
_0-9_
 62
    7
 10
1425.3890376340416
 20
2924.9256912442406
 40
15
 41
1
 50
90
  1
13
  0
LINE
  8
_0-9_
  6
CONTINUOUS
 62
    7
 10
1425.8890376340419
 20
2926.5506912442415
 11
1425.8890376340419
 21
2892.5506912442415
  0
POINT
  8
_0-9_
 62
    7
 10
1425.8890376340419
 20
2892.5506912442415
  0
TEXT
  8
_0-9_
 62
    7
 10
1425.3890376340416
 20
2901.4256912442415
 40
15
 41
1
 50
90
  1
34
  0
LINE
  8
_0-9_
  6
CONTINUOUS
 62
    7
 10
1425.8890376340419
 20
2892.5506912442415
 11
1425.8890376340419
 21
2879.5506912442397
  0
POINT
  8
_0-9_
 62
    7
 10
1425.8890376340419
 20
2879.5506912442397
  0
TEXT
  8
_0-9_
 62
    7
 10
1425.3890376340416
 20
2877.9256912442406
 40
15
 41
1
 50
90
  1
13
  0
LINE
  8
_0-9_
  6
CONTINUOUS
 62
    7
 10
1425.8890376340419
 20
2619.5506912442397
 11
1425.8890376340419
 21
2606.5506912442397
  0
POINT
  8
_0-9_
 62
    7
 10
1425.8890376340419
 20
2619.5506912442397
  0
POINT
  8
_0-9_
 62
    7
 10
1425.8890376340419
 20
2606.5506912442397
  0
TEXT
  8
_0-9_
 62
    7
 10
1425.3890376340416
 20
2604.9256912442393
 40
15
 41
1
 50
90
  1
13
  0
LINE
  8
_0-9_
  6
CONTINUOUS
 62
    7
 10
1425.8890376340419
 20
2606.5506912442397
 11
1425.8890376340419
 21
2572.5506912442397
  0
POINT
  8
_0-9_
 62
    7
 10
1425.8890376340419
 20
2572.5506912442397
  0
TEXT
  8
_0-9_
 62
    7
 10
1425.3890376340416
 20
2581.4256912442397
 40
15
 41
1
 50
90
  1
34
  0
LINE
  8
_0-9_
  6
CONTINUOUS
 62
    7
 10
1425.8890376340419
 20
2572.5506912442397
 11
1425.8890376340419
 21
2559.5506912442397
  0
POINT
  8
_0-9_
 62
    7
 10
1425.8890376340419
 20
2559.5506912442397
  0
TEXT
  8
_0-9_
 62
    7
 10
1425.3890376340416
 20
2557.9256912442397
 40
15
 41
1
 50
90
  1
13
  0
LINE
  8
_0-9_
  6
CONTINUOUS
 62
    7
 10
2528.213086537804
 20
3274.5506912442397
 11
2528.213086537804
 21
3260.5506912442393
  0
POINT
  8
_0-9_
 62
    7
 10
2528.213086537804
 20
3274.5506912442397
  0
POINT
  8
_0-9_
 62
    7
 10
2528.213086537804
 20
3260.5506912442393
  0
TEXT
  8
_0-9_
 62
    7
 10
2527.713086537804
 20
3259.4256912442397
 40
15
 41
1
 50
90
  1
14
  0
LINE
  8
_0-9_
  6
CONTINUOUS
 62
    7
 10
2528.213086537804
 20
3260.5506912442393
 11
2528.213086537804
 21
3213.5506912442397
  0
POINT
  8
_0-9_
 62
    7
 10
2528.213086537804
 20
3213.5506912442397
  0
TEXT
  8
_0-9_
 62
    7
 10
2527.713086537804
 20
3228.9256912442397
 40
15
 41
1
 50
90
  1
47
  0
LINE
  8
_0-9_
  6
CONTINUOUS
 62
    7
 10
2528.213086537804
 20
3213.5506912442397
 11
2528.213086537804
 21
3199.5506912442397
  0
POINT
  8
_0-9_
 62
    7
 10
2528.213086537804
 20
3199.5506912442397
  0
TEXT
  8
_0-9_
 62
    7
 10
2527.713086537804
 20
3198.4256912442397
 40
15
 41
1
 50
90
  1
14
  0
LINE
  8
_0-9_
  6
CONTINUOUS
 62
    7
 10
2528.213086537804
 20
2954.5506912442397
 11
2528.213086537804
 21
2940.5506912442397
  0
POINT
  8
_0-9_
 62
    7
 10
2528.213086537804
 20
2954.5506912442397
  0
POINT
  8
_0-9_
 62
    7
 10
2528.213086537804
 20
2940.5506912442397
  0
TEXT
  8
_0-9_
 62
    7
 10
2527.713086537804
 20
2939.4256912442397
 40
15
 41
1
 50
90
  1
14
  0
LINE
  8
_0-9_
  6
CONTINUOUS
 62
    7
 10
2528.213086537804
 20
2940.5506912442397
 11
2528.213086537804
 21
2893.5506912442397
  0
POINT
  8
_0-9_
 62
    7
 10
2528.213086537804
 20
2893.5506912442397
  0
LINE
  8
_0-9_
  6
CONTINUOUS
 62
    7
 10
2528.213086537804
 20
2893.5506912442397
 11
2516.1723502304148
 21
2893.5506912442397
  0
TEXT
  8
_0-9_
 62
    7
 10
2527.713086537804
 20
2908.9256912442397
 40
15
 41
1
 50
90
  1
47
  0
LINE
  8
_0-9_
  6
CONTINUOUS
 62
    7
 10
2528.213086537804
 20
2893.5506912442397
 11
2528.213086537804
 21
2879.5506912442397
  0
POINT
  8
_0-9_
 62
    7
 10
2528.213086537804
 20
2879.5506912442397
  0
TEXT
  8
_0-9_
 62
    7
 10
2527.713086537804
 20
2878.4256912442397
 40
15
 41
1
 50
90
  1
14
  0
LINE
  8
_0-9_
  6
CONTINUOUS
 62
    7
 10
2528.213086537804
 20
2633.5506912442397
 11
2528.213086537804
 21
2618.5506912442397
  0
POINT
  8
_0-9_
 62
    7
 10
2528.213086537804
 20
2633.5506912442397
  0
POINT
  8
_0-9_
 62
    7
 10
2528.213086537804
 20
2618.5506912442397
  0
TEXT
  8
_0-9_
 62
    7
 10
2527.713086537804
 20
2617.9256912442397
 40
15
 41
1
 50
90
  1
15
  0
LINE
  8
_0-9_
  6
CONTINUOUS
 62
    7
 10
2528.213086537804
 20
2618.5506912442397
 11
2528.213086537804
 21
2573.5506912442397
  0
POINT
  8
_0-9_
 62
    7
 10
2528.213086537804
 20
2573.5506912442397
  0
TEXT
  8
_0-9_
 62
    7
 10
2527.713086537804
 20
2587.9256912442397
 40
15
 41
1
 50
90
  1
45
  0
LINE
  8
_0-9_
  6
CONTINUOUS
 62
    7
 10
2528.213086537804
 20
2573.5506912442397
 11
2528.213086537804
 21
2558.5506912442397
  0
POINT
  8
_0-9_
 62
    7
 10
2528.213086537804
 20
2558.5506912442397
  0
TEXT
  8
_0-9_
 62
    7
 10
2527.713086537804
 20
2557.9256912442397
 40
15
 41
1
 50
90
  1
15
  0
ENDSEC
  0
EOF
