  0
SECTION
  2
HEADER
  9
$ACADVER
  1
AC1009
  9
$INSBASE
 10
0
 20
0
 30
0
  9
$EXTMIN
 10
0
 20
0
  9
$EXTMAX
 10
3360
 20
2376
  9
$LIMMIN
 10
0
 20
0
  9
$LIMMAX
 10
3360
 20
2376
  9
$LTSCALE
 40
8
  0
ENDSEC
  0
SECTION
  2
TABLES
  0
TABLE
  2
LTYPE
 70
     9
  0
LTYPE
  2
CONTINUOUS
 70
    64
  3
実線
 72
    65
 73
     0
 40
0.0
  0
LTYPE
  2
DASHED1
 70
    64
  3
--  --  --  --  --  --  --  --  
 72
    65
 73
     2
 40
2.5
 49
1.25
 49
-1.25
  0
LTYPE
  2
DASHED2
 70
    64
  3
----    ----    ----    ----    
 72
    65
 73
     2
 40
5.0
 49
2.5
 49
-2.5
  0
LTYPE
  2
DASHED3
 70
    64
  3
------  ------  ------  ------  
 72
    65
 73
     2
 40
5.0
 49
3.75
 49
-1.25
  0
LTYPE
  2
CENTER1
 70
    64
  3
----- - ----- - ----- - ----- - 
 72
    65
 73
     4
 40
10.0
 49
6.25
 49
-1.25
 49
1.25
 49
-1.25
  0
LTYPE
  2
CENTER2
 70
    64
  3
----------  --  ----------  --  
 72
    65
 73
     4
 40
20.0
 49
12.5
 49
-2.5
 49
2.5
 49
-2.5
  0
LTYPE
  2
PHANTOM1
 70
    64
  3
--- - - --- - - --- - - --- - - 
 72
    65
 73
     6
 40
10.0
 49
3.25
 49
-1.25
 49
1.25
 49
-1.25
 49
1.25
 49
-1.25
  0
LTYPE
  2
PHANTOM2
 70
    64
  3
--------  -  -  --------  -  -  
 72
    65
 73
     6
 40
20.0
 49
10.0
 49
-2.5
 49
1.25
 49
-2.5
 49
1.25
 49
-2.5
  0
LTYPE
  2
DOT
 70
    64
  3
-   -   -   -   -   -   -   -   
 72
    65
 73
     2
 40
2.5
 49
0.625
 49
-1.875
  0
LTYPE
  2
DUMMY
 70
    64
  3
ダミー
 72
    65
 73
     0
 40
0.0
  0
LTYPE
  2
RAND1
 70
    64
  3
ランダム線1
 72
    65
 73
     4
 40
10.0
 49
1.0
 49
-2.0
 49
3.0
 49
-4.0
  0
LTYPE
  2
RAND2
 70
    64
  3
ランダム線2
 72
    65
 73
     4
 40
14.0
 49
2.0
 49
-3.0
 49
4.0
 49
-5.0
  0
LTYPE
  2
RAND3
 70
    64
  3
ランダム線3
 72
    65
 73
     4
 40
18.0
 49
3.0
 49
-4.0
 49
5.0
 49
-6.0
  0
LTYPE
  2
RAND4
 70
    64
  3
ランダム線4
 72
    65
 73
     4
 40
22.0
 49
4.0
 49
-5.0
 49
6.0
 49
-7.0
  0
LTYPE
  2
RAND5
 70
    64
  3
ランダム線5
 72
    65
 73
     4
 40
26.0
 49
5.0
 49
-6.0
 49
7.0
 49
-8.0
  0
LTYPE
  2
LONG1
 70
    64
  3
----------  --  ----------  --  
 72
    65
 73
     4
 40
40.0
 49
32.5
 49
-2.5
 49
2.5
 49
-2.5
  0
LTYPE
  2
LONG2
 70
    64
  3
--------  -  -  --------  -  -  
 72
    65
 73
     6
 40
40.0
 49
30.0
 49
-2.5
 49
1.25
 49
-2.5
 49
1.25
 49
-2.5
  0
LTYPE
  2
LONG3
 70
    64
  3
+++++++++++++++..+++++++++++++++
 72
    65
 73
     2
 40
40.0
 49
37.5
 49
-2.5
  0
LTYPE
  2
LONG4
 70
    64
  3
+++++++++++++++..+++++++++++++++
 72
    65
 73
     2
 40
80.0
 49
75.0
 49
-5.0
  0
LTYPE
  2
LONG5
 70
    64
  3
----------  --  ----------  --  
 72
    65
 73
     4
 40
60.0
 49
37.5
 49
-7.5
 49
7.5
 49
-7.5
  0
LTYPE
  2
dashed
 70
   64
  3
-------   -------------   ------
 72
   65
 73
    2
 40
7.5
 49
6
 49
-1.5
  0
LTYPE
  2
dashed_spaced
 70
   64
  3
----        --------        ----
 72
   65
 73
    2
 40
12
 49
6
 49
-6
  0
LTYPE
  2
long_dashed_dotted
 70
   64
  3
------------- --- --------------
 72
   65
 73
    4
 40
15.25
 49
12
 49
-1.5
 49
0.25
 49
-1.5
  0
LTYPE
  2
long_dashed_double-dotted
 70
   64
  3
----------- --- --- ------------
 72
   65
 73
    6
 40
17
 49
12
 49
-1.5
 49
0.25
 49
-1.5
 49
0.25
 49
-1.5
  0
LTYPE
  2
long_dashed_triplicate-dotted
 70
   64
  3
--------- --- --- --- ----------
 72
   65
 73
    8
 40
18.75
 49
12
 49
-1.5
 49
0.25
 49
-1.5
 49
0.25
 49
-1.5
 49
0.25
 49
-1.5
  0
LTYPE
  2
dotted
 70
   64
  3
   -       -       -       -    
 72
   65
 73
    2
 40
1.75
 49
0.25
 49
-1.5
  0
LTYPE
  2
chain
 70
   64
  3
-------------- -- --------------
 72
   65
 73
    4
 40
18.5
 49
12
 49
-1.5
 49
3.5
 49
-1.5
  0
LTYPE
  2
chain_double_dash
 70
   64
  3
------------ -- -- -------------
 72
   65
 73
    6
 40
23.5
 49
12
 49
-1.5
 49
3.5
 49
-1.5
 49
3.5
 49
-1.5
  0
LTYPE
  2
dashed_dotted
 70
   64
  3
-----------     -     ----------
 72
   65
 73
    4
 40
9.25
 49
6
 49
-1.5
 49
0.25
 49
-1.5
  0
LTYPE
  2
double-dashed_dotted
 70
   64
  3
------   -----------   -   -----
 72
   65
 73
    6
 40
16.75
 49
6
 49
-1.5
 49
6
 49
-1.5
 49
0.25
 49
-1.5
  0
LTYPE
  2
dashed_double-dotted
 70
   64
  3
---------    -    -    ---------
 72
   65
 73
    6
 40
11
 49
6
 49
-1.5
 49
0.25
 49
-1.5
 49
0.25
 49
-1.5
  0
LTYPE
  2
double-dashed_double-dotted
 70
   64
  3
-----   ---------   -   -   ----
 72
   65
 73
    8
 40
18.5
 49
6
 49
-1.5
 49
6
 49
-1.5
 49
0.25
 49
-1.5
 49
0.25
 49
-1.5
  0
LTYPE
  2
dashed_triplicate-dotted
 70
   64
  3
-------    -    -    -    ------
 72
   65
 73
    8
 40
12.75
 49
6
 49
-1.5
 49
0.25
 49
-1.5
 49
0.25
 49
-1.5
 49
0.25
 49
-1.5
  0
LTYPE
  2
double-dashed_triplicate-dotted
 70
   64
  3
-----  ---------  -  -  -  -----
 72
   65
 73
   10
 40
20.25
 49
6
 49
-1.5
 49
6
 49
-1.5
 49
0.25
 49
-1.5
 49
0.25
 49
-1.5
 49
0.25
 49
-1.5
  0
LTYPE
  2
undefined
 70
   64
  3
--------------------------------
 72
   65
 73
    0
 40
0
  0
LTYPE
  2
_
 70
   64
  3
                                
 72
   65
 73
    0
 40
0
  0
LTYPE
  2
__18
 70
   64
  3
                                
 72
   65
 73
    0
 40
0
  0
LTYPE
  2
__19
 70
   64
  3
                                
 72
   65
 73
    0
 40
0
  0
LTYPE
  2
__20
 70
   64
  3
                                
 72
   65
 73
    0
 40
0
  0
LTYPE
  2
__21
 70
   64
  3
                                
 72
   65
 73
    0
 40
0
  0
LTYPE
  2
__22
 70
   64
  3
                                
 72
   65
 73
    0
 40
0
  0
LTYPE
  2
__23
 70
   64
  3
                                
 72
   65
 73
    0
 40
0
  0
LTYPE
  2
__24
 70
   64
  3
                                
 72
   65
 73
    0
 40
0
  0
LTYPE
  2
__25
 70
   64
  3
                                
 72
   65
 73
    0
 40
0
  0
LTYPE
  2
__26
 70
   64
  3
                                
 72
   65
 73
    0
 40
0
  0
LTYPE
  2
__27
 70
   64
  3
                                
 72
   65
 73
    0
 40
0
  0
LTYPE
  2
__28
 70
   64
  3
                                
 72
   65
 73
    0
 40
0
  0
LTYPE
  2
__29
 70
   64
  3
                                
 72
   65
 73
    0
 40
0
  0
LTYPE
  2
__30
 70
   64
  3
                                
 72
   65
 73
    0
 40
0
  0
LTYPE
  2
__31
 70
   64
  3
                                
 72
   65
 73
    0
 40
0
  0
LTYPE
  2
__32
 70
   64
  3
                                
 72
   65
 73
    0
 40
0
  0
ENDTAB
  0
TABLE
  2
STYLE
  5
3
100
AcDbSymbolTable
 70
     1
  0
STYLE
  5
10
100
AcDbSymbolTableRecord
100
AcDbTextStyleTableRecord
  2
STANDARD
 70
     0
 40
0.0
 41
1.0
 50
0.0
 71
     0
 42
0.2
  3
txt
  4
bigfont.shx
  0
STYLE
  5
26
100
AcDbSymbolTableRecord
100
AcDbTextStyleTableRecord
  2
TATEGAKI
 70
    68
 40
0.0
 41
1.0
 50
0.0
 71
     0
 42
1.0
  3
txt
  4
bigfont.shx
  0
ENDTAB
  0
TABLE
  2
LAYER
 70
    4
  0
LAYER
  2
_0-0_LAY
 70
   64
 62
    7
  6
CONTINUOUS
  0
LAYER
  2
_0-9__1-9_
 70
   64
 62
    7
  6
CONTINUOUS
  0
LAYER
  2
_0-a__1-3_
 70
   64
 62
    7
  6
CONTINUOUS
  0
LAYER
  2
ADD_LINE
 70
   64
 62
    7
  6
CONTINUOUS
  0
ENDTAB
  0
ENDSEC
  0
SECTION
  2
BLOCKS
  0
ENDSEC
  0
SECTION
  2
ENTITIES
  0
LINE
  8
ADD_LINE
  6
DOT
 62
    7
 10
-931.3023451684021
 20
2364
 11
-931.3023451684021
 21
11.999999999999773
  0
LINE
  8
ADD_LINE
  6
DOT
 62
    7
 10
716.69765483159836
 20
2364
 11
716.69765483159836
 21
11.999999999999773
  0
LINE
  8
ADD_LINE
  6
DOT
 62
    7
 10
-931.3023451684021
 20
11.999999999999773
 11
716.69765483159836
 21
11.999999999999773
  0
LINE
  8
ADD_LINE
  6
DOT
 62
    7
 10
852.98856392250536
 20
2364
 11
852.98856392250536
 21
11.999999999999773
  0
LINE
  8
ADD_LINE
  6
DOT
 62
    7
 10
2500.9885639225054
 20
2364
 11
2500.9885639225054
 21
11.999999999999773
  0
LINE
  8
ADD_LINE
  6
DOT
 62
    7
 10
852.98856392250536
 20
11.999999999999773
 11
2500.9885639225054
 21
11.999999999999773
  0
LINE
  8
ADD_LINE
  6
DOT
 62
    7
 10
2643.3023451684026
 20
2364
 11
2643.3023451684026
 21
11.999999999999773
  0
LINE
  8
ADD_LINE
  6
DOT
 62
    7
 10
4291.3023451684021
 20
2364
 11
4291.3023451684021
 21
11.999999999999773
  0
LINE
  8
ADD_LINE
  6
DOT
 62
    7
 10
2643.3023451684026
 20
2364
 11
4291.3023451684021
 21
2364
  0
LINE
  8
ADD_LINE
  6
DOT
 62
    7
 10
2643.3023451684026
 20
11.999999999999773
 11
4291.3023451684021
 21
11.999999999999773
  0
LINE
  8
ADD_LINE
  6
DOT
 62
    7
 10
-931.3023451684021
 20
2364
 11
716.69765483159836
 21
2364
  0
LINE
  8
ADD_LINE
  6
DOT
 62
    7
 10
852.98856392250536
 20
2364
 11
2500.9885639225054
 21
2364
  0
TEXT
  8
_0-a__1-3_
 62
    7
 10
2792.0711781684749
 20
2223.8717502510954
 40
28
 41
1
 50
0
  1
MNYS-6029
  0
LINE
  8
_0-a__1-3_
  6
CONTINUOUS
 62
    7
 10
-827.30234516840164
 20
179.99999999999977
 11
612.6976548315979
 21
179.99999999999977
  0
LINE
  8
_0-a__1-3_
  6
CONTINUOUS
 62
    7
 10
-827.30234516840164
 20
2260
 11
-827.30234516840164
 21
116
  0
LINE
  8
_0-a__1-3_
  6
CONTINUOUS
 62
    7
 10
612.6976548315979
 20
2260
 11
612.6976548315979
 21
116
  0
LINE
  8
_0-a__1-3_
  6
CONTINUOUS
 62
    7
 10
-827.30234516840164
 20
116
 11
612.6976548315979
 21
116
  0
LINE
  8
_0-a__1-3_
  6
CONTINUOUS
 62
    7
 10
-427.30234516840164
 20
179.99999999999977
 11
-427.30234516840164
 21
116
  0
LINE
  8
_0-a__1-3_
  6
CONTINUOUS
 62
    7
 10
20.697654831597902
 20
179.99999999999977
 11
20.697654831597902
 21
116
  0
LINE
  8
_0-a__1-3_
  6
CONTINUOUS
 62
    7
 10
420.6976548315979
 20
156
 11
612.6976548315979
 21
156
  0
LINE
  8
_0-a__1-3_
  6
CONTINUOUS
 62
    7
 10
420.6976548315979
 20
179.99999999999977
 11
420.6976548315979
 21
116
  0
LINE
  8
_0-a__1-3_
  6
CONTINUOUS
 62
    7
 10
516.6976548315979
 20
179.99999999999977
 11
516.6976548315979
 21
116
  0
LINE
  8
_0-a__1-3_
  6
CONTINUOUS
 62
    7
 10
956.98856392250582
 20
179.99999999999977
 11
2396.9885639225067
 21
179.99999999999977
  0
LINE
  8
_0-a__1-3_
  6
CONTINUOUS
 62
    7
 10
956.98856392250582
 20
2260
 11
956.98856392250582
 21
116
  0
LINE
  8
_0-a__1-3_
  6
CONTINUOUS
 62
    7
 10
2396.9885639225067
 20
2260
 11
2396.9885639225067
 21
116
  0
LINE
  8
_0-a__1-3_
  6
CONTINUOUS
 62
    7
 10
956.98856392250582
 20
116
 11
2396.9885639225067
 21
116
  0
LINE
  8
_0-a__1-3_
  6
CONTINUOUS
 62
    7
 10
1356.9885639225058
 20
179.99999999999977
 11
1356.9885639225058
 21
116
  0
LINE
  8
_0-a__1-3_
  6
CONTINUOUS
 62
    7
 10
1804.9885639225067
 20
179.99999999999977
 11
1804.9885639225067
 21
116
  0
LINE
  8
_0-a__1-3_
  6
CONTINUOUS
 62
    7
 10
2204.9885639225067
 20
179.99999999999977
 11
2204.9885639225067
 21
116
  0
LINE
  8
_0-a__1-3_
  6
CONTINUOUS
 62
    7
 10
2300.9885639225067
 20
179.99999999999977
 11
2300.9885639225067
 21
116
  0
LINE
  8
_0-a__1-3_
  6
CONTINUOUS
 62
    7
 10
2747.302345168403
 20
874.40000000000009
 11
4187.3023451684021
 21
874.40000000000009
  0
LINE
  8
_0-a__1-3_
  6
CONTINUOUS
 62
    7
 10
2747.302345168403
 20
2260
 11
4187.3023451684021
 21
2260
  0
LINE
  8
_0-a__1-3_
  6
CONTINUOUS
 62
    7
 10
2747.302345168403
 20
179.99999999999977
 11
4187.3023451684021
 21
179.99999999999977
  0
LINE
  8
_0-a__1-3_
  6
CONTINUOUS
 62
    7
 10
2747.302345168403
 20
2260
 11
2747.302345168403
 21
116
  0
LINE
  8
_0-a__1-3_
  6
CONTINUOUS
 62
    7
 10
4187.3023451684021
 20
2260
 11
4187.3023451684021
 21
116
  0
LINE
  8
_0-a__1-3_
  6
CONTINUOUS
 62
    7
 10
2747.302345168403
 20
116
 11
4187.3023451684021
 21
116
  0
LINE
  8
_0-a__1-3_
  6
CONTINUOUS
 62
    7
 10
3147.3023451684016
 20
179.99999999999977
 11
3147.3023451684016
 21
116
  0
LINE
  8
_0-a__1-3_
  6
CONTINUOUS
 62
    7
 10
3595.3023451684012
 20
179.99999999999977
 11
3595.3023451684012
 21
116
  0
LINE
  8
_0-a__1-3_
  6
CONTINUOUS
 62
    7
 10
3995.3023451684026
 20
156
 11
4187.3023451684021
 21
156
  0
LINE
  8
_0-a__1-3_
  6
CONTINUOUS
 62
    7
 10
3995.3023451684026
 20
179.99999999999977
 11
3995.3023451684026
 21
116
  0
LINE
  8
_0-a__1-3_
  6
CONTINUOUS
 62
    7
 10
4091.3023451684026
 20
179.99999999999977
 11
4091.3023451684026
 21
116
  0
LINE
  8
_0-a__1-3_
  6
CONTINUOUS
 62
    7
 10
2747.302345168403
 20
1567.2
 11
4187.3023451684021
 21
1567.2
  0
LINE
  8
_0-a__1-3_
  6
CONTINUOUS
 62
    7
 10
-827.30234516840164
 20
964
 11
-395.30229716840176
 21
964
  0
LINE
  8
_0-a__1-3_
  6
CONTINUOUS
 62
    7
 10
-827.30234516840164
 20
2260
 11
612.6976548315979
 21
2260
  0
LINE
  8
_0-a__1-3_
  6
CONTINUOUS
 62
    7
 10
-395.30229716840176
 20
2260
 11
-395.30229716840176
 21
2212
  0
LINE
  8
_0-a__1-3_
  6
CONTINUOUS
 62
    7
 10
-827.30234516840164
 20
2212
 11
-395.30229716840176
 21
2212
  0
LINE
  8
_0-a__1-3_
  6
CONTINUOUS
 62
    7
 10
-827.30234516840164
 20
1796
 11
-395.30229716840176
 21
1796
  0
LINE
  8
_0-a__1-3_
  6
CONTINUOUS
 62
    7
 10
-827.30234516840164
 20
1844
 11
612.6976548315979
 21
1844
  0
LINE
  8
_0-a__1-3_
  6
CONTINUOUS
 62
    7
 10
-395.30229716840176
 20
1844
 11
-395.30229716840176
 21
1796
  0
LINE
  8
_0-a__1-3_
  6
CONTINUOUS
 62
    7
 10
-827.30234516840164
 20
1428
 11
612.6976548315979
 21
1428
  0
LINE
  8
_0-a__1-3_
  6
CONTINUOUS
 62
    7
 10
-827.30234516840164
 20
1380
 11
-395.30229716840176
 21
1380
  0
LINE
  8
_0-a__1-3_
  6
CONTINUOUS
 62
    7
 10
-395.30229716840176
 20
1428
 11
-395.30229716840176
 21
1380
  0
LINE
  8
_0-a__1-3_
  6
CONTINUOUS
 62
    7
 10
-827.30234516840164
 20
1012
 11
612.6976548315979
 21
1012
  0
LINE
  8
_0-a__1-3_
  6
CONTINUOUS
 62
    7
 10
-395.30229716840176
 20
1012
 11
-395.30229716840176
 21
964
  0
LINE
  8
_0-a__1-3_
  6
CONTINUOUS
 62
    7
 10
-827.30234516840164
 20
596
 11
612.6976548315979
 21
596
  0
LINE
  8
_0-a__1-3_
  6
CONTINUOUS
 62
    7
 10
-827.30234516840164
 20
547.99999999999989
 11
-395.30229716840176
 21
547.99999999999989
  0
LINE
  8
_0-a__1-3_
  6
CONTINUOUS
 62
    7
 10
-395.30229716840176
 20
596
 11
-395.30229716840176
 21
547.99999999999989
  0
LINE
  8
_0-a__1-3_
  6
CONTINUOUS
 62
    7
 10
956.98856392250582
 20
964
 11
1388.9886119225071
 21
964
  0
LINE
  8
_0-a__1-3_
  6
CONTINUOUS
 62
    7
 10
956.98856392250582
 20
2260
 11
2396.9885639225067
 21
2260
  0
LINE
  8
_0-a__1-3_
  6
CONTINUOUS
 62
    7
 10
1388.9886119225071
 20
2260
 11
1388.9886119225071
 21
2212
  0
LINE
  8
_0-a__1-3_
  6
CONTINUOUS
 62
    7
 10
956.98856392250582
 20
2212
 11
1388.9886119225071
 21
2212
  0
LINE
  8
_0-a__1-3_
  6
CONTINUOUS
 62
    7
 10
956.98856392250582
 20
1796
 11
1388.9886119225071
 21
1796
  0
LINE
  8
_0-a__1-3_
  6
CONTINUOUS
 62
    7
 10
956.98856392250582
 20
1844
 11
2396.9885639225067
 21
1844
  0
LINE
  8
_0-a__1-3_
  6
CONTINUOUS
 62
    7
 10
1388.9886119225071
 20
1844
 11
1388.9886119225071
 21
1796
  0
LINE
  8
_0-a__1-3_
  6
CONTINUOUS
 62
    7
 10
956.98856392250582
 20
1428
 11
2396.9885639225067
 21
1428
  0
LINE
  8
_0-a__1-3_
  6
CONTINUOUS
 62
    7
 10
956.98856392250582
 20
1380
 11
1388.9886119225071
 21
1380
  0
LINE
  8
_0-a__1-3_
  6
CONTINUOUS
 62
    7
 10
1388.9886119225071
 20
1428
 11
1388.9886119225071
 21
1380
  0
LINE
  8
_0-a__1-3_
  6
CONTINUOUS
 62
    7
 10
956.98856392250582
 20
1012
 11
2396.9885639225067
 21
1012
  0
LINE
  8
_0-a__1-3_
  6
CONTINUOUS
 62
    7
 10
1388.9886119225071
 20
1012
 11
1388.9886119225071
 21
964
  0
LINE
  8
_0-a__1-3_
  6
CONTINUOUS
 62
    7
 10
956.98856392250582
 20
596
 11
2396.9885639225067
 21
596
  0
LINE
  8
_0-a__1-3_
  6
CONTINUOUS
 62
    7
 10
956.98856392250582
 20
547.99999999999989
 11
1388.9886119225071
 21
547.99999999999989
  0
LINE
  8
_0-a__1-3_
  6
CONTINUOUS
 62
    7
 10
1388.9886119225071
 20
596
 11
1388.9886119225071
 21
547.99999999999989
  0
LINE
  8
_0-a__1-3_
  6
CONTINUOUS
 62
    7
 10
2747.302345168403
 20
1519.2
 11
3179.3023931684015
 21
1519.2
  0
LINE
  8
_0-a__1-3_
  6
CONTINUOUS
 62
    7
 10
3179.3023931684015
 20
2260
 11
3179.3023931684015
 21
2212
  0
LINE
  8
_0-a__1-3_
  6
CONTINUOUS
 62
    7
 10
2747.302345168403
 20
2212
 11
3179.3023931684015
 21
2212
  0
LINE
  8
_0-a__1-3_
  6
CONTINUOUS
 62
    7
 10
2747.302345168403
 20
826.40000000000009
 11
3179.3023931684015
 21
826.40000000000009
  0
LINE
  8
_0-a__1-3_
  6
CONTINUOUS
 62
    7
 10
3179.3023931684015
 20
874.40000000000009
 11
3179.3023931684015
 21
826.40000000000009
  0
LINE
  8
_0-a__1-3_
  6
CONTINUOUS
 62
    7
 10
3179.3023931684015
 20
1567.2
 11
3179.3023931684015
 21
1519.2
  0
LINE
  8
_0-a__1-3_
  6
CONTINUOUS
 62
    7
 10
1404.310338698675
 20
1828.212614630876
 11
1404.310338698675
 21
1808.212614630876
  0
LINE
  8
_0-a__1-3_
  6
CONTINUOUS
 62
    7
 10
1404.310338698675
 20
1828.212614630876
 11
1604.310338698675
 21
1828.212614630876
  0
LINE
  8
_0-a__1-3_
  6
CONTINUOUS
 62
    7
 10
1404.310338698675
 20
1808.212614630876
 11
1604.310338698675
 21
1808.212614630876
  0
LINE
  8
_0-a__1-3_
  6
CONTINUOUS
 62
    7
 10
1604.310338698675
 20
1828.212614630876
 11
1604.310338698675
 21
1808.212614630876
  0
LINE
  8
_0-a__1-3_
  6
CONTINUOUS
 62
    7
 10
1404.310338698675
 20
1412.2126146308749
 11
1604.310338698675
 21
1412.2126146308749
  0
LINE
  8
_0-a__1-3_
  6
CONTINUOUS
 62
    7
 10
1404.310338698675
 20
1412.2126146308749
 11
1404.310338698675
 21
1392.2126146308749
  0
LINE
  8
_0-a__1-3_
  6
CONTINUOUS
 62
    7
 10
1404.310338698675
 20
1392.2126146308749
 11
1604.310338698675
 21
1392.2126146308749
  0
LINE
  8
_0-a__1-3_
  6
CONTINUOUS
 62
    7
 10
1604.310338698675
 20
1412.2126146308749
 11
1604.310338698675
 21
1392.2126146308749
  0
LINE
  8
_0-a__1-3_
  6
CONTINUOUS
 62
    7
 10
-379.98057039223295
 20
1828.212614630876
 11
-379.98057039223295
 21
1808.212614630876
  0
LINE
  8
_0-a__1-3_
  6
CONTINUOUS
 62
    7
 10
-379.98057039223295
 20
1828.212614630876
 11
-179.98057039223318
 21
1828.212614630876
  0
LINE
  8
_0-a__1-3_
  6
CONTINUOUS
 62
    7
 10
-379.98057039223295
 20
1808.212614630876
 11
-179.98057039223318
 21
1808.212614630876
  0
LINE
  8
_0-a__1-3_
  6
CONTINUOUS
 62
    7
 10
-179.98057039223318
 20
1828.212614630876
 11
-179.98057039223318
 21
1808.212614630876
  0
LINE
  8
_0-a__1-3_
  6
CONTINUOUS
 62
    7
 10
-379.98057039223295
 20
1412.2126146308749
 11
-379.98057039223295
 21
1392.2126146308749
  0
LINE
  8
_0-a__1-3_
  6
CONTINUOUS
 62
    7
 10
-379.98057039223295
 20
1412.2126146308749
 11
-179.98057039223318
 21
1412.2126146308749
  0
LINE
  8
_0-a__1-3_
  6
CONTINUOUS
 62
    7
 10
-379.98057039223295
 20
1392.2126146308749
 11
-179.98057039223318
 21
1392.2126146308749
  0
LINE
  8
_0-a__1-3_
  6
CONTINUOUS
 62
    7
 10
-179.98057039223318
 20
1412.2126146308749
 11
-179.98057039223318
 21
1392.2126146308749
  0
LINE
  8
_0-a__1-3_
  6
CONTINUOUS
 62
    7
 10
-379.98057039223295
 20
996.2126146308749
 11
-379.98057039223295
 21
976.2126146308749
  0
LINE
  8
_0-a__1-3_
  6
CONTINUOUS
 62
    7
 10
-379.98057039223295
 20
996.2126146308749
 11
-179.98057039223318
 21
996.2126146308749
  0
LINE
  8
_0-a__1-3_
  6
CONTINUOUS
 62
    7
 10
-379.98057039223295
 20
976.2126146308749
 11
-179.98057039223318
 21
976.2126146308749
  0
LINE
  8
_0-a__1-3_
  6
CONTINUOUS
 62
    7
 10
-179.98057039223318
 20
996.2126146308749
 11
-179.98057039223318
 21
976.2126146308749
  0
LINE
  8
_0-a__1-3_
  6
CONTINUOUS
 62
    7
 10
-379.98057039223295
 20
580.21261463087546
 11
-379.98057039223295
 21
560.21261463087558
  0
LINE
  8
_0-a__1-3_
  6
CONTINUOUS
 62
    7
 10
-379.98057039223295
 20
580.21261463087546
 11
-179.98057039223318
 21
580.21261463087546
  0
LINE
  8
_0-a__1-3_
  6
CONTINUOUS
 62
    7
 10
-379.98057039223295
 20
560.21261463087558
 11
-179.98057039223318
 21
560.21261463087558
  0
LINE
  8
_0-a__1-3_
  6
CONTINUOUS
 62
    7
 10
-179.98057039223318
 20
580.21261463087546
 11
-179.98057039223318
 21
560.21261463087558
  0
LINE
  8
_0-a__1-3_
  6
CONTINUOUS
 62
    7
 10
3194.6241199445708
 20
1551.4126146308749
 11
3194.6241199445708
 21
1531.4126146308749
  0
LINE
  8
_0-a__1-3_
  6
CONTINUOUS
 62
    7
 10
3194.6241199445708
 20
1551.4126146308749
 11
3394.6241199445708
 21
1551.4126146308749
  0
LINE
  8
_0-a__1-3_
  6
CONTINUOUS
 62
    7
 10
3194.6241199445708
 20
1531.4126146308749
 11
3394.6241199445708
 21
1531.4126146308749
  0
LINE
  8
_0-a__1-3_
  6
CONTINUOUS
 62
    7
 10
3394.6241199445708
 20
1551.4126146308749
 11
3394.6241199445708
 21
1531.4126146308749
  0
LINE
  8
_0-a__1-3_
  6
CONTINUOUS
 62
    7
 10
1404.310338698675
 20
2244.212614630876
 11
1404.310338698675
 21
2224.212614630876
  0
LINE
  8
_0-a__1-3_
  6
CONTINUOUS
 62
    7
 10
1404.310338698675
 20
2244.212614630876
 11
1604.310338698675
 21
2244.212614630876
  0
LINE
  8
_0-a__1-3_
  6
CONTINUOUS
 62
    7
 10
1404.310338698675
 20
2224.212614630876
 11
1604.310338698675
 21
2224.212614630876
  0
LINE
  8
_0-a__1-3_
  6
CONTINUOUS
 62
    7
 10
1604.310338698675
 20
2244.212614630876
 11
1604.310338698675
 21
2224.212614630876
  0
LINE
  8
_0-a__1-3_
  6
CONTINUOUS
 62
    7
 10
-379.98057039223295
 20
2244.212614630876
 11
-379.98057039223295
 21
2224.212614630876
  0
LINE
  8
_0-a__1-3_
  6
CONTINUOUS
 62
    7
 10
-379.98057039223295
 20
2244.212614630876
 11
-179.98057039223318
 21
2244.212614630876
  0
LINE
  8
_0-a__1-3_
  6
CONTINUOUS
 62
    7
 10
-379.98057039223295
 20
2224.212614630876
 11
-179.98057039223318
 21
2224.212614630876
  0
LINE
  8
_0-a__1-3_
  6
CONTINUOUS
 62
    7
 10
-179.98057039223318
 20
2244.212614630876
 11
-179.98057039223318
 21
2224.212614630876
  0
LINE
  8
_0-a__1-3_
  6
CONTINUOUS
 62
    7
 10
3194.6241199445708
 20
2244.212614630876
 11
3194.6241199445708
 21
2224.212614630876
  0
LINE
  8
_0-a__1-3_
  6
CONTINUOUS
 62
    7
 10
3194.6241199445708
 20
2244.212614630876
 11
3394.6241199445708
 21
2244.212614630876
  0
LINE
  8
_0-a__1-3_
  6
CONTINUOUS
 62
    7
 10
3194.6241199445708
 20
2224.212614630876
 11
3394.6241199445708
 21
2224.212614630876
  0
LINE
  8
_0-a__1-3_
  6
CONTINUOUS
 62
    7
 10
3394.6241199445708
 20
2244.212614630876
 11
3394.6241199445708
 21
2224.212614630876
  0
LINE
  8
_0-a__1-3_
  6
CONTINUOUS
 62
    7
 10
2204.9885639225067
 20
156
 11
2396.9885639225067
 21
156
  0
TEXT
  8
_0-a__1-3_
 62
    7
 10
-780.26602800283763
 20
562.4391802002915
 40
28
 41
1
 50
0
  1
MNH-6090B2
  0
TEXT
  8
_0-a__1-3_
 62
    7
 10
-780.70647900682798
 20
975.79092374246193
 40
28
 41
1
 50
0
  1
MNH-6060B1
  0
TEXT
  8
_0-a__1-3_
 62
    7
 10
-780.54541942294554
 20
1394.4372661321679
 40
28
 41
1
 50
0
  1
MNH-6059B1
  0
TEXT
  8
_0-a__1-3_
 62
    7
 10
-781.21175415232801
 20
1809.356083234364
 40
28
 41
1
 50
0
  1
MNH-6050B1
  0
TEXT
  8
_0-a__1-3_
 62
    7
 10
-780.85963795923499
 20
2223.4163739538017
 40
28
 41
1
 50
0
  1
MNH-6040B1
  0
TEXT
  8
_0-a__1-3_
 62
    7
 10
2794.222886557086
 20
1529.1218348019129
 40
28
 41
1
 50
0
  1
MNY30-6029B
  0
TEXT
  8
_0-a__1-3_
 62
    7
 10
2819.471178168475
 20
1469.4959952885761
 40
28
 41
1
 50
0
  1
中部地方以西での取扱い製品です。
  0
TEXT
  8
_0-a__1-3_
 62
    7
 10
2794.471178168475
 20
2162.2959952885758
 40
28
 41
1
 50
0
  1
製作コーナー
  0
TEXT
  8
_0-a__1-3_
 62
    7
 10
1004.8312711316718
 20
2223.4163739538017
 40
28
 41
1
 50
0
  1
MNH-60121B1
  0
TEXT
  8
_0-a__1-3_
 62
    7
 10
1003.079154938579
 20
1809.356083234364
 40
28
 41
1
 50
0
  1
MNH-7560B1
  0
TEXT
  8
_0-a__1-3_
 62
    7
 10
1002.3454896679619
 20
1394.4372661321679
 40
28
 41
1
 50
0
  1
MNT-6556A
  0
TEXT
  8
_0-a__1-3_
 62
    7
 10
3238.5510886611273
 20
1534.9883543899471
 40
15
 41
1
 50
0
  1
弾性接着剤張り用
  0
TEXT
  8
_0-a__1-3_
 62
    7
 10
3238.5510886611273
 20
2227.788354389947
 40
15
 41
1
 50
0
  1
弾性接着剤張り用
  0
TEXT
  8
_0-a__1-3_
 62
    7
 10
1448.237307415231
 20
2227.788354389947
 40
15
 41
1
 50
0
  1
弾性接着剤張り用
  0
TEXT
  8
_0-a__1-3_
 62
    7
 10
1448.237307415231
 20
1811.788354389947
 40
15
 41
1
 50
0
  1
弾性接着剤張り用
  0
TEXT
  8
_0-a__1-3_
 62
    7
 10
1448.237307415231
 20
1395.788354389947
 40
15
 41
1
 50
0
  1
乾式タイル張り用
  0
TEXT
  8
_0-a__1-3_
 62
    7
 10
-336.05360167567687
 20
2227.788354389947
 40
15
 41
1
 50
0
  1
弾性接着剤張り用
  0
TEXT
  8
_0-a__1-3_
 62
    7
 10
-336.05360167567687
 20
1811.788354389947
 40
15
 41
1
 50
0
  1
弾性接着剤張り用
  0
TEXT
  8
_0-a__1-3_
 62
    7
 10
-336.05360167567687
 20
1395.788354389947
 40
15
 41
1
 50
0
  1
弾性接着剤張り用
  0
TEXT
  8
_0-a__1-3_
 62
    7
 10
-336.05360167567687
 20
979.78835438994702
 40
15
 41
1
 50
0
  1
弾性接着剤張り用
  0
TEXT
  8
_0-a__1-3_
 62
    7
 10
-336.05360167567687
 20
563.78835438994713
 40
15
 41
1
 50
0
  1
弾性接着剤張り用
  0
TEXT
  8
_0-a__1-3_
 62
    7
 10
-795.3023451684021
 20
135.99999999999955
 40
24.000000000000227
 41
0.9999999999999906
 50
0
  1
メ－ス（押出成形セメント板）
  0
TEXT
  8
_0-a__1-3_
 62
    7
 10
-347.30234516840164
 20
135.99999999999955
 40
24
 41
0.9999999999999995
 50
0
  1
アイカテック建材株式会社
  0
TEXT
  8
_0-a__1-3_
 62
    7
 10
431.19765483159836
 20
160.49999999999977
 40
15
 41
1
 50
0
  1
ＳＣＡＬＥ
  0
TEXT
  8
_0-a__1-3_
 62
    7
 10
538.4476548315979
 20
160.49999999999977
 40
15
 41
1
 50
0
  1
図面No.
  0
TEXT
  8
_0-a__1-3_
 62
    7
 10
447.6976548315979
 20
121.99999999999955
 40
28
 41
1
 50
0
  1
1/8
  0
TEXT
  8
_0-a__1-3_
 62
    7
 10
112.69765483159858
 20
135.99999999999977
 40
24.000000000000227
 41
0.9999999999999924
 50
0
  1
タイル張り用パネル
  0
TEXT
  8
_0-a__1-3_
 62
    7
 10
529.6976548315979
 20
121.99999999999955
 40
28
 41
1
 50
0
  1
S-3-1
  0
TEXT
  8
_0-a__1-3_
 62
    7
 10
988.98856392250536
 20
135.99999999999955
 40
24.000000000000227
 41
0.9999999999999906
 50
0
  1
メ－ス（押出成形セメント板）
  0
TEXT
  8
_0-a__1-3_
 62
    7
 10
1436.9885639225058
 20
135.99999999999955
 40
24
 41
0.9999999999999995
 50
0
  1
アイカテック建材株式会社
  0
TEXT
  8
_0-a__1-3_
 62
    7
 10
2215.4885639225058
 20
160.49999999999977
 40
15
 41
1
 50
0
  1
ＳＣＡＬＥ
  0
TEXT
  8
_0-a__1-3_
 62
    7
 10
2322.7385639225054
 20
160.49999999999977
 40
15
 41
1
 50
0
  1
図面No.
  0
TEXT
  8
_0-a__1-3_
 62
    7
 10
2231.9885639225054
 20
121.99999999999955
 40
28
 41
1
 50
0
  1
1/8
  0
TEXT
  8
_0-a__1-3_
 62
    7
 10
1896.9885639225063
 20
135.99999999999977
 40
24.000000000000227
 41
0.9999999999999924
 50
0
  1
タイル張り用パネル
  0
TEXT
  8
_0-a__1-3_
 62
    7
 10
2313.9885639225054
 20
121.99999999999955
 40
28
 41
1
 50
0
  1
S-3-2
  0
TEXT
  8
_0-a__1-3_
 62
    7
 10
2779.3023451684026
 20
135.99999999999955
 40
24.000000000000227
 41
0.9999999999999906
 50
0
  1
メ－ス（押出成形セメント板）
  0
TEXT
  8
_0-a__1-3_
 62
    7
 10
3227.302345168403
 20
135.99999999999955
 40
24
 41
0.9999999999999995
 50
0
  1
アイカテック建材株式会社
  0
TEXT
  8
_0-a__1-3_
 62
    7
 10
4005.802345168403
 20
160.49999999999977
 40
15
 41
1
 50
0
  1
ＳＣＡＬＥ
  0
TEXT
  8
_0-a__1-3_
 62
    7
 10
4113.0523451684021
 20
160.49999999999977
 40
15
 41
1
 50
0
  1
図面No.
  0
TEXT
  8
_0-a__1-3_
 62
    7
 10
4022.3023451684026
 20
121.99999999999955
 40
28
 41
1
 50
0
  1
1/8
  0
TEXT
  8
_0-a__1-3_
 62
    7
 10
3687.3023451684035
 20
135.99999999999977
 40
24.000000000000227
 41
0.9999999999999924
 50
0
  1
タイル張り用パネル
  0
TEXT
  8
_0-a__1-3_
 62
    7
 10
4104.3023451684021
 20
121.99999999999955
 40
28
 41
1
 50
0
  1
S-3-3
  0
LINE
  8
_0-0_LAY
  6
CONTINUOUS
 62
    2
 10
-709.99614636463366
 20
2000.0000049999999
 11
-707.99614636463366
 21
1998.0000049999999
  0
LINE
  8
_0-0_LAY
  6
CONTINUOUS
 62
    2
 10
-707.99614636463366
 20
2058.0000049999999
 11
-709.99614636463366
 21
2055.9999949999988
  0
LINE
  8
_0-0_LAY
  6
CONTINUOUS
 62
    2
 10
-709.99614636463366
 20
2047.0000150000001
 11
-709.99614636463366
 21
2055.9999949999988
  0
LINE
  8
_0-0_LAY
  6
CONTINUOUS
 62
    2
 10
-692.99619636463422
 20
2044.0000049999999
 11
-706.99613636463391
 21
2044.0000049999999
  0
LINE
  8
_0-0_LAY
  6
CONTINUOUS
 62
    2
 10
-689.99618636463401
 20
2015.0000049999999
 11
-689.99618636463401
 21
2040.9999949999988
  0
LINE
  8
_0-0_LAY
  6
CONTINUOUS
 62
    2
 10
-706.99613636463391
 20
2011.9999949999988
 11
-692.99619636463422
 21
2011.9999949999988
  0
LINE
  8
_0-0_LAY
  6
CONTINUOUS
 62
    2
 10
-709.99614636463366
 20
2009.0000150000001
 11
-709.99614636463366
 21
2000.0000049999999
  0
LINE
  8
_0-0_LAY
  6
CONTINUOUS
 62
    2
 10
-619.99614636463366
 20
2010.9999949999988
 11
-673.99617636463381
 21
2010.9999949999988
  0
LINE
  8
_0-0_LAY
  6
CONTINUOUS
 62
    2
 10
-616.99618636463401
 20
2041.9999949999988
 11
-616.99618636463401
 21
2014.0000049999999
  0
LINE
  8
_0-0_LAY
  6
CONTINUOUS
 62
    2
 10
-673.99617636463381
 20
2045.0000049999999
 11
-619.99614636463366
 21
2045.0000049999999
  0
LINE
  8
_0-0_LAY
  6
CONTINUOUS
 62
    2
 10
-676.99618636463401
 20
2041.9999949999988
 11
-676.99618636463401
 21
2014.0000049999999
  0
LINE
  8
_0-0_LAY
  6
CONTINUOUS
 62
    2
 10
-297.99617636463381
 20
2040.9999949999988
 11
-311.99617636463381
 21
2040.9999949999988
  0
LINE
  8
_0-0_LAY
  6
CONTINUOUS
 62
    2
 10
-294.99616636463406
 20
2018.0000449999998
 11
-294.99616636463406
 21
2037.9999849999999
  0
LINE
  8
_0-0_LAY
  6
CONTINUOUS
 62
    2
 10
-311.99617636463381
 20
2015.0000049999999
 11
-297.99617636463381
 21
2015.0000049999999
  0
LINE
  8
_0-0_LAY
  6
CONTINUOUS
 62
    2
 10
-327.99617636463381
 20
2014.0000049999999
 11
-327.99617636463381
 21
2041.9999949999988
  0
LINE
  8
_0-0_LAY
  6
CONTINUOUS
 62
    2
 10
-384.99616636463406
 20
2045.0000049999999
 11
-330.99618636463424
 21
2045.0000049999999
  0
LINE
  8
_0-0_LAY
  6
CONTINUOUS
 62
    2
 10
-387.99617636463381
 20
2014.0000049999999
 11
-387.99617636463381
 21
2041.9999949999988
  0
LINE
  8
_0-0_LAY
  6
CONTINUOUS
 62
    2
 10
-384.99616636463406
 20
2010.9999949999988
 11
-330.99618636463424
 21
2010.9999949999988
  0
LINE
  8
_0-0_LAY
  6
CONTINUOUS
 62
    2
 10
-400.99616636463406
 20
2014.0000049999999
 11
-400.99616636463406
 21
2041.9999949999988
  0
LINE
  8
_0-0_LAY
  6
CONTINUOUS
 62
    2
 10
-456.99615636463386
 20
2045.0000049999999
 11
-403.99617636463381
 21
2045.0000049999999
  0
LINE
  8
_0-0_LAY
  6
CONTINUOUS
 62
    2
 10
-459.99616636463406
 20
2014.0000049999999
 11
-459.99616636463406
 21
2041.9999949999988
  0
LINE
  8
_0-0_LAY
  6
CONTINUOUS
 62
    2
 10
-456.99615636463386
 20
2010.9999949999988
 11
-403.99617636463381
 21
2010.9999949999988
  0
LINE
  8
_0-0_LAY
  6
CONTINUOUS
 62
    2
 10
-472.99615636463386
 20
2014.0000049999999
 11
-472.99615636463386
 21
2041.9999949999988
  0
LINE
  8
_0-0_LAY
  6
CONTINUOUS
 62
    2
 10
-528.99614636463366
 20
2045.0000049999999
 11
-475.99616636463406
 21
2045.0000049999999
  0
LINE
  8
_0-0_LAY
  6
CONTINUOUS
 62
    2
 10
-531.99615636463386
 20
2014.0000049999999
 11
-531.99615636463386
 21
2041.9999949999988
  0
LINE
  8
_0-0_LAY
  6
CONTINUOUS
 62
    2
 10
-528.99614636463366
 20
2010.9999949999988
 11
-475.99616636463406
 21
2010.9999949999988
  0
LINE
  8
_0-0_LAY
  6
CONTINUOUS
 62
    2
 10
-544.99614636463366
 20
2014.0000049999999
 11
-544.99614636463366
 21
2041.9999949999988
  0
LINE
  8
_0-0_LAY
  6
CONTINUOUS
 62
    2
 10
-600.99618636463447
 20
2010.9999949999988
 11
-547.99620636463396
 21
2010.9999949999988
  0
LINE
  8
_0-0_LAY
  6
CONTINUOUS
 62
    2
 10
-603.99619636463422
 20
2041.9999949999988
 11
-603.99619636463422
 21
2014.0000049999999
  0
LINE
  8
_0-0_LAY
  6
CONTINUOUS
 62
    2
 10
-600.99618636463447
 20
2045.0000049999999
 11
-547.99620636463396
 21
2045.0000049999999
  0
LINE
  8
_0-0_LAY
  6
CONTINUOUS
 62
    2
 10
-316.99619636463376
 20
2058.0000049999999
 11
-707.99614636463366
 21
2058.0000049999999
  0
LINE
  8
_0-0_LAY
  6
CONTINUOUS
 62
    2
 10
-314.99618636463401
 20
2055.9999949999988
 11
-314.99618636463401
 21
2044.0000049999999
  0
LINE
  8
_0-0_LAY
  6
CONTINUOUS
 62
    2
 10
-316.99619636463376
 20
2058.0000049999999
 11
-314.99618636463401
 21
2055.9999949999988
  0
LINE
  8
_0-0_LAY
  6
CONTINUOUS
 62
    2
 10
-314.99618636463401
 20
2000.0000049999999
 11
-314.99618636463401
 21
2011.9999949999988
  0
LINE
  8
_0-0_LAY
  6
CONTINUOUS
 62
    2
 10
-316.99619636463376
 20
1998.0000049999999
 11
-707.99614636463366
 21
1998.0000049999999
  0
LINE
  8
_0-0_LAY
  6
CONTINUOUS
 62
    2
 10
-314.99618636463401
 20
2000.0000049999999
 11
-316.99619636463376
 21
1998.0000049999999
  0
ARC
  8
_0-0_LAY
  6
CONTINUOUS
 62
    2
 10
-706.99613636463391
 20
2047.0000150000001
 40
3.0000000000000004
 50
180
 51
270
  0
ARC
  8
_0-0_LAY
  6
CONTINUOUS
 62
    2
 10
-692.99619636463422
 20
2040.9999949999988
 40
3.0000000000000004
 50
0
 51
90
  0
ARC
  8
_0-0_LAY
  6
CONTINUOUS
 62
    2
 10
-692.99619636463422
 20
2015.0000049999999
 40
3.0000000000000004
 50
270
 51
0
  0
ARC
  8
_0-0_LAY
  6
CONTINUOUS
 62
    2
 10
-706.99613636463391
 20
2009.0000150000001
 40
3.0000000000000004
 50
90
 51
180
  0
ARC
  8
_0-0_LAY
  6
CONTINUOUS
 62
    2
 10
-673.99617636463381
 20
2014.0000049999999
 40
3.0000000000000004
 50
180
 51
270
  0
ARC
  8
_0-0_LAY
  6
CONTINUOUS
 62
    2
 10
-619.99614636463366
 20
2014.0000049999999
 40
3.0000000000000004
 50
270
 51
0
  0
ARC
  8
_0-0_LAY
  6
CONTINUOUS
 62
    2
 10
-619.99614636463366
 20
2041.9999949999988
 40
3.0000000000000004
 50
0
 51
90
  0
ARC
  8
_0-0_LAY
  6
CONTINUOUS
 62
    2
 10
-673.99617636463381
 20
2041.9999949999988
 40
3.0000000000000004
 50
90
 51
180
  0
ARC
  8
_0-0_LAY
  6
CONTINUOUS
 62
    2
 10
-311.99617636463381
 20
2044.0000049999999
 40
3.0000000000000004
 50
180
 51
270
  0
ARC
  8
_0-0_LAY
  6
CONTINUOUS
 62
    2
 10
-297.99617636463381
 20
2037.9999849999999
 40
3.0000000000000004
 50
0
 51
90
  0
ARC
  8
_0-0_LAY
  6
CONTINUOUS
 62
    2
 10
-297.99617636463381
 20
2018.0000449999998
 40
3.0000000000000004
 50
270
 51
0
  0
ARC
  8
_0-0_LAY
  6
CONTINUOUS
 62
    2
 10
-311.99617636463381
 20
2011.9999949999988
 40
3.0000000000000004
 50
90
 51
180
  0
ARC
  8
_0-0_LAY
  6
CONTINUOUS
 62
    2
 10
-330.99618636463424
 20
2041.9999949999988
 40
3.0000000000000004
 50
0
 51
90
  0
ARC
  8
_0-0_LAY
  6
CONTINUOUS
 62
    2
 10
-330.99618636463424
 20
2014.0000049999999
 40
3.0000000000000004
 50
270
 51
0
  0
ARC
  8
_0-0_LAY
  6
CONTINUOUS
 62
    2
 10
-384.99616636463406
 20
2041.9999949999988
 40
3.0000000000000004
 50
90
 51
180
  0
ARC
  8
_0-0_LAY
  6
CONTINUOUS
 62
    2
 10
-384.99616636463406
 20
2014.0000049999999
 40
3.0000000000000004
 50
180
 51
270
  0
ARC
  8
_0-0_LAY
  6
CONTINUOUS
 62
    2
 10
-403.99617636463381
 20
2041.9999949999988
 40
3.0000000000000004
 50
0
 51
90
  0
ARC
  8
_0-0_LAY
  6
CONTINUOUS
 62
    2
 10
-403.99617636463381
 20
2014.0000049999999
 40
3.0000000000000004
 50
270
 51
0
  0
ARC
  8
_0-0_LAY
  6
CONTINUOUS
 62
    2
 10
-456.99615636463386
 20
2041.9999949999988
 40
3.0000000000000004
 50
90
 51
180
  0
ARC
  8
_0-0_LAY
  6
CONTINUOUS
 62
    2
 10
-456.99615636463386
 20
2014.0000049999999
 40
3.0000000000000004
 50
180
 51
270
  0
ARC
  8
_0-0_LAY
  6
CONTINUOUS
 62
    2
 10
-475.99616636463406
 20
2041.9999949999988
 40
3.0000000000000004
 50
0
 51
90
  0
ARC
  8
_0-0_LAY
  6
CONTINUOUS
 62
    2
 10
-475.99616636463406
 20
2014.0000049999999
 40
3.0000000000000004
 50
270
 51
0
  0
ARC
  8
_0-0_LAY
  6
CONTINUOUS
 62
    2
 10
-528.99614636463366
 20
2041.9999949999988
 40
3.0000000000000004
 50
90
 51
180
  0
ARC
  8
_0-0_LAY
  6
CONTINUOUS
 62
    2
 10
-528.99614636463366
 20
2014.0000049999999
 40
3.0000000000000004
 50
180
 51
270
  0
ARC
  8
_0-0_LAY
  6
CONTINUOUS
 62
    2
 10
-547.99620636463396
 20
2041.9999949999988
 40
3.0000000000000004
 50
0
 51
90
  0
ARC
  8
_0-0_LAY
  6
CONTINUOUS
 62
    2
 10
-547.99620636463396
 20
2014.0000049999999
 40
3.0000000000000004
 50
270
 51
0
  0
ARC
  8
_0-0_LAY
  6
CONTINUOUS
 62
    2
 10
-600.99618636463447
 20
2014.0000049999999
 40
3.0000000000000004
 50
180
 51
270
  0
ARC
  8
_0-0_LAY
  6
CONTINUOUS
 62
    2
 10
-600.99618636463447
 20
2041.9999949999988
 40
3.0000000000000004
 50
90
 51
180
  0
LINE
  8
_0-0_LAY
  6
CONTINUOUS
 62
    2
 10
-709.99614636463366
 20
1584.000004999999
 11
-707.99614636463366
 21
1582.0000049999999
  0
LINE
  8
_0-0_LAY
  6
CONTINUOUS
 62
    2
 10
-707.99614636463366
 20
1642.000004999999
 11
-709.99614636463366
 21
1639.999994999999
  0
LINE
  8
_0-0_LAY
  6
CONTINUOUS
 62
    2
 10
-709.99614636463366
 20
1631.0000150000001
 11
-709.99614636463366
 21
1639.999994999999
  0
LINE
  8
_0-0_LAY
  6
CONTINUOUS
 62
    2
 10
-692.99617636463381
 20
1628.000004999999
 11
-706.99614636463366
 21
1628.000004999999
  0
LINE
  8
_0-0_LAY
  6
CONTINUOUS
 62
    2
 10
-689.99616636463361
 20
1599.0000049999999
 11
-689.99616636463361
 21
1624.9999949999999
  0
LINE
  8
_0-0_LAY
  6
CONTINUOUS
 62
    2
 10
-706.99614636463366
 20
1595.9999949999999
 11
-692.99617636463381
 21
1595.9999949999999
  0
LINE
  8
_0-0_LAY
  6
CONTINUOUS
 62
    2
 10
-709.99614636463366
 20
1592.9999849999999
 11
-709.99614636463366
 21
1584.000004999999
  0
LINE
  8
_0-0_LAY
  6
CONTINUOUS
 62
    2
 10
-623.99615636463386
 20
1625.9999949999999
 11
-623.99615636463386
 21
1598.0000049999999
  0
LINE
  8
_0-0_LAY
  6
CONTINUOUS
 62
    2
 10
-676.99615636463386
 20
1625.9999949999999
 11
-676.99615636463386
 21
1598.0000049999999
  0
LINE
  8
_0-0_LAY
  6
CONTINUOUS
 62
    2
 10
-197.99619636463444
 20
1624.9999949999999
 11
-211.99623636463434
 21
1624.9999949999999
  0
LINE
  8
_0-0_LAY
  6
CONTINUOUS
 62
    2
 10
-194.99623636463411
 20
1602.0000149999989
 11
-194.99623636463411
 21
1621.9999849999999
  0
LINE
  8
_0-0_LAY
  6
CONTINUOUS
 62
    2
 10
-211.99623636463434
 20
1599.0000049999999
 11
-197.99619636463444
 21
1599.0000049999999
  0
LINE
  8
_0-0_LAY
  6
CONTINUOUS
 62
    2
 10
-214.99619636463399
 20
1584.000004999999
 11
-214.99619636463399
 21
1595.9999949999999
  0
LINE
  8
_0-0_LAY
  6
CONTINUOUS
 62
    2
 10
-214.99619636463399
 20
1584.000004999999
 11
-216.99620636463419
 21
1582.0000049999999
  0
LINE
  8
_0-0_LAY
  6
CONTINUOUS
 62
    2
 10
-216.99620636463419
 20
1642.000004999999
 11
-214.99619636463399
 21
1639.999994999999
  0
LINE
  8
_0-0_LAY
  6
CONTINUOUS
 62
    2
 10
-216.99620636463419
 20
1642.000004999999
 11
-707.99614636463366
 21
1642.000004999999
  0
LINE
  8
_0-0_LAY
  6
CONTINUOUS
 62
    2
 10
-216.99620636463419
 20
1582.0000049999999
 11
-707.99614636463366
 21
1582.0000049999999
  0
LINE
  8
_0-0_LAY
  6
CONTINUOUS
 62
    2
 10
-673.99614636463366
 20
1629.000004999999
 11
-626.99616636463406
 21
1629.000004999999
  0
LINE
  8
_0-0_LAY
  6
CONTINUOUS
 62
    2
 10
-626.99616636463406
 20
1594.999994999999
 11
-673.99614636463366
 21
1594.999994999999
  0
LINE
  8
_0-0_LAY
  6
CONTINUOUS
 62
    2
 10
-560.99617636463381
 20
1629.000004999999
 11
-607.99615636463386
 21
1629.000004999999
  0
LINE
  8
_0-0_LAY
  6
CONTINUOUS
 62
    2
 10
-557.99616636463406
 20
1598.0000049999999
 11
-557.99616636463406
 21
1625.9999949999999
  0
LINE
  8
_0-0_LAY
  6
CONTINUOUS
 62
    2
 10
-607.99615636463386
 20
1594.999994999999
 11
-560.99617636463381
 21
1594.999994999999
  0
LINE
  8
_0-0_LAY
  6
CONTINUOUS
 62
    2
 10
-610.99616636463406
 20
1598.0000049999999
 11
-610.99616636463406
 21
1625.9999949999999
  0
LINE
  8
_0-0_LAY
  6
CONTINUOUS
 62
    2
 10
-494.99615636463432
 20
1629.000004999999
 11
-541.99615636463386
 21
1629.000004999999
  0
LINE
  8
_0-0_LAY
  6
CONTINUOUS
 62
    2
 10
-491.99616636463406
 20
1598.0000049999999
 11
-491.99616636463406
 21
1625.9999949999999
  0
LINE
  8
_0-0_LAY
  6
CONTINUOUS
 62
    2
 10
-541.99615636463386
 20
1594.999994999999
 11
-494.99615636463432
 21
1594.999994999999
  0
LINE
  8
_0-0_LAY
  6
CONTINUOUS
 62
    2
 10
-544.99616636463406
 20
1598.0000049999999
 11
-544.99616636463406
 21
1625.9999949999999
  0
LINE
  8
_0-0_LAY
  6
CONTINUOUS
 62
    2
 10
-428.99620636463396
 20
1629.000004999999
 11
-475.99611636463396
 21
1629.000004999999
  0
LINE
  8
_0-0_LAY
  6
CONTINUOUS
 62
    2
 10
-425.99614636463366
 20
1598.0000049999999
 11
-425.99614636463366
 21
1625.9999949999999
  0
LINE
  8
_0-0_LAY
  6
CONTINUOUS
 62
    2
 10
-475.99611636463396
 20
1594.999994999999
 11
-428.99620636463396
 21
1594.999994999999
  0
LINE
  8
_0-0_LAY
  6
CONTINUOUS
 62
    2
 10
-478.99615636463386
 20
1598.0000049999999
 11
-478.99615636463386
 21
1625.9999949999999
  0
LINE
  8
_0-0_LAY
  6
CONTINUOUS
 62
    2
 10
-362.99609636463379
 20
1629.000004999999
 11
-409.99609636463401
 21
1629.000004999999
  0
LINE
  8
_0-0_LAY
  6
CONTINUOUS
 62
    2
 10
-359.99613636463414
 20
1598.0000049999999
 11
-359.99613636463414
 21
1625.9999949999999
  0
LINE
  8
_0-0_LAY
  6
CONTINUOUS
 62
    2
 10
-409.99609636463401
 20
1594.999994999999
 11
-362.99609636463379
 21
1594.999994999999
  0
LINE
  8
_0-0_LAY
  6
CONTINUOUS
 62
    2
 10
-412.99615636463386
 20
1598.0000049999999
 11
-412.99615636463386
 21
1625.9999949999999
  0
LINE
  8
_0-0_LAY
  6
CONTINUOUS
 62
    2
 10
-296.99617636463381
 20
1629.000004999999
 11
-343.99617636463381
 21
1629.000004999999
  0
LINE
  8
_0-0_LAY
  6
CONTINUOUS
 62
    2
 10
-293.99611636463396
 20
1598.0000049999999
 11
-293.99611636463396
 21
1625.9999949999999
  0
LINE
  8
_0-0_LAY
  6
CONTINUOUS
 62
    2
 10
-343.99617636463381
 20
1594.999994999999
 11
-296.99617636463381
 21
1594.999994999999
  0
LINE
  8
_0-0_LAY
  6
CONTINUOUS
 62
    2
 10
-346.99613636463391
 20
1598.0000049999999
 11
-346.99613636463391
 21
1625.9999949999999
  0
LINE
  8
_0-0_LAY
  6
CONTINUOUS
 62
    2
 10
-230.99615636463409
 20
1629.000004999999
 11
-277.99615636463386
 21
1629.000004999999
  0
LINE
  8
_0-0_LAY
  6
CONTINUOUS
 62
    2
 10
-227.99609636463379
 20
1598.0000049999999
 11
-227.99609636463379
 21
1625.9999949999999
  0
LINE
  8
_0-0_LAY
  6
CONTINUOUS
 62
    2
 10
-277.99615636463386
 20
1594.999994999999
 11
-230.99615636463409
 21
1594.999994999999
  0
LINE
  8
_0-0_LAY
  6
CONTINUOUS
 62
    2
 10
-280.99611636463419
 20
1598.0000049999999
 11
-280.99611636463419
 21
1625.9999949999999
  0
LINE
  8
_0-0_LAY
  6
CONTINUOUS
 62
    2
 10
-214.99619636463399
 20
1639.999994999999
 11
-214.99619636463399
 21
1628.000004999999
  0
ARC
  8
_0-0_LAY
  6
CONTINUOUS
 62
    2
 10
-706.99614636463366
 20
1631.0000150000001
 40
3.0000000000000004
 50
180
 51
270
  0
ARC
  8
_0-0_LAY
  6
CONTINUOUS
 62
    2
 10
-692.99617636463381
 20
1624.9999949999999
 40
3.0000000000000004
 50
0
 51
90
  0
ARC
  8
_0-0_LAY
  6
CONTINUOUS
 62
    2
 10
-692.99617636463381
 20
1599.0000049999999
 40
3.0000000000000004
 50
270
 51
0
  0
ARC
  8
_0-0_LAY
  6
CONTINUOUS
 62
    2
 10
-706.99614636463366
 20
1592.9999849999999
 40
3.0000000000000004
 50
90
 51
180
  0
ARC
  8
_0-0_LAY
  6
CONTINUOUS
 62
    2
 10
-673.99614636463366
 20
1598.0000049999999
 40
3.0000000000000004
 50
180
 51
270
  0
ARC
  8
_0-0_LAY
  6
CONTINUOUS
 62
    2
 10
-626.99616636463406
 20
1598.0000049999999
 40
3.0000000000000004
 50
270
 51
0
  0
ARC
  8
_0-0_LAY
  6
CONTINUOUS
 62
    2
 10
-626.99616636463406
 20
1625.9999949999999
 40
3.0000000000000004
 50
0
 51
90
  0
ARC
  8
_0-0_LAY
  6
CONTINUOUS
 62
    2
 10
-673.99614636463366
 20
1625.9999949999999
 40
3.0000000000000004
 50
90
 51
180
  0
ARC
  8
_0-0_LAY
  6
CONTINUOUS
 62
    2
 10
-211.99623636463434
 20
1628.000004999999
 40
3.0000000000000004
 50
180
 51
270
  0
ARC
  8
_0-0_LAY
  6
CONTINUOUS
 62
    2
 10
-197.99619636463444
 20
1621.9999849999999
 40
3.0000000000000004
 50
0
 51
90
  0
ARC
  8
_0-0_LAY
  6
CONTINUOUS
 62
    2
 10
-197.99619636463444
 20
1602.0000149999989
 40
3.0000000000000004
 50
270
 51
0
  0
ARC
  8
_0-0_LAY
  6
CONTINUOUS
 62
    2
 10
-211.99623636463434
 20
1595.9999949999999
 40
3.0000000000000004
 50
90
 51
180
  0
ARC
  8
_0-0_LAY
  6
CONTINUOUS
 62
    2
 10
-607.99615636463386
 20
1625.9999949999999
 40
3.0000000000000004
 50
90
 51
180
  0
ARC
  8
_0-0_LAY
  6
CONTINUOUS
 62
    2
 10
-560.99617636463381
 20
1625.9999949999999
 40
3.0000000000000004
 50
0
 51
90
  0
ARC
  8
_0-0_LAY
  6
CONTINUOUS
 62
    2
 10
-560.99617636463381
 20
1598.0000049999999
 40
3.0000000000000004
 50
270
 51
0
  0
ARC
  8
_0-0_LAY
  6
CONTINUOUS
 62
    2
 10
-607.99615636463386
 20
1598.0000049999999
 40
3.0000000000000004
 50
180
 51
270
  0
ARC
  8
_0-0_LAY
  6
CONTINUOUS
 62
    2
 10
-541.99615636463386
 20
1625.9999949999999
 40
3.0000000000000004
 50
90
 51
180
  0
ARC
  8
_0-0_LAY
  6
CONTINUOUS
 62
    2
 10
-494.99615636463432
 20
1625.9999949999999
 40
3.0000000000000004
 50
0
 51
90
  0
ARC
  8
_0-0_LAY
  6
CONTINUOUS
 62
    2
 10
-494.99615636463432
 20
1598.0000049999999
 40
3.0000000000000004
 50
270
 51
0
  0
ARC
  8
_0-0_LAY
  6
CONTINUOUS
 62
    2
 10
-541.99615636463386
 20
1598.0000049999999
 40
3.0000000000000004
 50
180
 51
270
  0
ARC
  8
_0-0_LAY
  6
CONTINUOUS
 62
    2
 10
-475.99611636463396
 20
1625.9999949999999
 40
3.0000000000000004
 50
90
 51
180
  0
ARC
  8
_0-0_LAY
  6
CONTINUOUS
 62
    2
 10
-428.99620636463396
 20
1625.9999949999999
 40
3.0000000000000004
 50
0
 51
90
  0
ARC
  8
_0-0_LAY
  6
CONTINUOUS
 62
    2
 10
-428.99620636463396
 20
1598.0000049999999
 40
3.0000000000000004
 50
270
 51
0
  0
ARC
  8
_0-0_LAY
  6
CONTINUOUS
 62
    2
 10
-475.99611636463396
 20
1598.0000049999999
 40
3.0000000000000004
 50
180
 51
270
  0
ARC
  8
_0-0_LAY
  6
CONTINUOUS
 62
    2
 10
-409.99609636463401
 20
1625.9999949999999
 40
3.0000000000000004
 50
90
 51
180
  0
ARC
  8
_0-0_LAY
  6
CONTINUOUS
 62
    2
 10
-362.99609636463379
 20
1625.9999949999999
 40
3.0000000000000004
 50
0
 51
90
  0
ARC
  8
_0-0_LAY
  6
CONTINUOUS
 62
    2
 10
-362.99609636463379
 20
1598.0000049999999
 40
3.0000000000000004
 50
270
 51
0
  0
ARC
  8
_0-0_LAY
  6
CONTINUOUS
 62
    2
 10
-409.99609636463401
 20
1598.0000049999999
 40
3.0000000000000004
 50
180
 51
270
  0
ARC
  8
_0-0_LAY
  6
CONTINUOUS
 62
    2
 10
-343.99617636463381
 20
1625.9999949999999
 40
3.0000000000000004
 50
90
 51
180
  0
ARC
  8
_0-0_LAY
  6
CONTINUOUS
 62
    2
 10
-296.99617636463381
 20
1625.9999949999999
 40
3.0000000000000004
 50
0
 51
90
  0
ARC
  8
_0-0_LAY
  6
CONTINUOUS
 62
    2
 10
-296.99617636463381
 20
1598.0000049999999
 40
3.0000000000000004
 50
270
 51
0
  0
ARC
  8
_0-0_LAY
  6
CONTINUOUS
 62
    2
 10
-343.99617636463381
 20
1598.0000049999999
 40
3.0000000000000004
 50
180
 51
270
  0
ARC
  8
_0-0_LAY
  6
CONTINUOUS
 62
    2
 10
-277.99615636463386
 20
1625.9999949999999
 40
3.0000000000000004
 50
90
 51
180
  0
ARC
  8
_0-0_LAY
  6
CONTINUOUS
 62
    2
 10
-230.99615636463409
 20
1625.9999949999999
 40
3.0000000000000004
 50
0
 51
90
  0
ARC
  8
_0-0_LAY
  6
CONTINUOUS
 62
    2
 10
-230.99615636463409
 20
1598.0000049999999
 40
3.0000000000000004
 50
270
 51
0
  0
ARC
  8
_0-0_LAY
  6
CONTINUOUS
 62
    2
 10
-277.99615636463386
 20
1598.0000049999999
 40
3.0000000000000004
 50
180
 51
270
  0
LINE
  8
_0-0_LAY
  6
CONTINUOUS
 62
    2
 10
-709.9961463646332
 20
1177
 11
-709.9961463646332
 21
1168.00001
  0
LINE
  8
_0-0_LAY
  6
CONTINUOUS
 62
    2
 10
-709.9961463646332
 20
1168.00001
 11
-707.9961463646332
 21
1166
  0
ARC
  8
_0-0_LAY
  6
CONTINUOUS
 62
    2
 10
-706.99614636463366
 20
1215
 40
3.0000000000000004
 50
180
 51
270
  0
LINE
  8
_0-0_LAY
  6
CONTINUOUS
 62
    2
 10
-692.9961463646332
 20
1212
 11
-706.99614636463366
 21
1212
  0
ARC
  8
_0-0_LAY
  6
CONTINUOUS
 62
    2
 10
-692.9961463646332
 20
1209
 40
3.0000000000000004
 50
0
 51
90
  0
LINE
  8
_0-0_LAY
  6
CONTINUOUS
 62
    2
 10
-689.99614636463366
 20
1183
 11
-689.99614636463366
 21
1209
  0
ARC
  8
_0-0_LAY
  6
CONTINUOUS
 62
    2
 10
-692.9961463646332
 20
1183
 40
3.0000000000000004
 50
270
 51
0
  0
LINE
  8
_0-0_LAY
  6
CONTINUOUS
 62
    2
 10
-706.99614636463366
 20
1180
 11
-692.9961463646332
 21
1180
  0
ARC
  8
_0-0_LAY
  6
CONTINUOUS
 62
    2
 10
-706.99614636463366
 20
1177
 40
3.0000000000000004
 50
90
 51
180
  0
LINE
  8
_0-0_LAY
  6
CONTINUOUS
 62
    2
 10
-709.9961463646332
 20
1224
 11
-709.9961463646332
 21
1215
  0
LINE
  8
_0-0_LAY
  6
CONTINUOUS
 62
    2
 10
-707.9961463646332
 20
1226
 11
-709.9961463646332
 21
1224
  0
LINE
  8
_0-0_LAY
  6
CONTINUOUS
 62
    2
 10
-131.99614636463343
 20
1226
 11
-707.9961463646332
 21
1226
  0
LINE
  8
_0-0_LAY
  6
CONTINUOUS
 62
    2
 10
-131.99614636463343
 20
1226
 11
-129.99614636463389
 21
1224
  0
LINE
  8
_0-0_LAY
  6
CONTINUOUS
 62
    2
 10
-131.99614636463343
 20
1166
 11
-707.9961463646332
 21
1166
  0
LINE
  8
_0-0_LAY
  6
CONTINUOUS
 62
    2
 10
-129.99614636463389
 20
1168
 11
-131.99614636463343
 21
1166
  0
LINE
  8
_0-0_LAY
  6
CONTINUOUS
 62
    2
 10
-129.99614636463389
 20
1212
 11
-129.99614636463389
 21
1224
  0
ARC
  8
_0-0_LAY
  6
CONTINUOUS
 62
    2
 10
-126.99614636463366
 20
1212
 40
3.0000000000000004
 50
180
 51
270
  0
LINE
  8
_0-0_LAY
  6
CONTINUOUS
 62
    2
 10
-112.99614636463366
 20
1209
 11
-126.99614636463366
 21
1209
  0
ARC
  8
_0-0_LAY
  6
CONTINUOUS
 62
    2
 10
-112.99614636463366
 20
1206
 40
3.0000000000000004
 50
0
 51
90
  0
LINE
  8
_0-0_LAY
  6
CONTINUOUS
 62
    2
 10
-109.99614636463389
 20
1186
 11
-109.99614636463389
 21
1206
  0
ARC
  8
_0-0_LAY
  6
CONTINUOUS
 62
    2
 10
-112.99614636463366
 20
1186
 40
3.0000000000000004
 50
270
 51
0
  0
LINE
  8
_0-0_LAY
  6
CONTINUOUS
 62
    2
 10
-126.99614636463366
 20
1183
 11
-112.99614636463366
 21
1183
  0
LINE
  8
_0-0_LAY
  6
CONTINUOUS
 62
    2
 10
-129.99614636463389
 20
1180
 11
-129.99614636463389
 21
1168
  0
ARC
  8
_0-0_LAY
  6
CONTINUOUS
 62
    2
 10
-126.99614636463366
 20
1180
 40
3.0000000000000004
 50
90
 51
180
  0
ARC
  8
_0-0_LAY
  6
CONTINUOUS
 62
    2
 10
-673.9961463646332
 20
1210
 40
3.0000000000000004
 50
90
 51
180
  0
LINE
  8
_0-0_LAY
  6
CONTINUOUS
 62
    2
 10
-676.99614636463366
 20
1182
 11
-676.99614636463366
 21
1210
  0
ARC
  8
_0-0_LAY
  6
CONTINUOUS
 62
    2
 10
-673.9961463646332
 20
1182
 40
3.0000000000000004
 50
180
 51
270
  0
LINE
  8
_0-0_LAY
  6
CONTINUOUS
 62
    2
 10
-623.49614636463366
 20
1179
 11
-673.9961463646332
 21
1179
  0
ARC
  8
_0-0_LAY
  6
CONTINUOUS
 62
    2
 10
-623.49614636463366
 20
1182
 40
3.0000000000000004
 50
270
 51
0
  0
LINE
  8
_0-0_LAY
  6
CONTINUOUS
 62
    2
 10
-620.49614636463366
 20
1210
 11
-620.49614636463366
 21
1182
  0
LINE
  8
_0-0_LAY
  6
CONTINUOUS
 62
    2
 10
-623.49614636463366
 20
1213
 11
-673.9961463646332
 21
1213
  0
ARC
  8
_0-0_LAY
  6
CONTINUOUS
 62
    2
 10
-623.49614636463366
 20
1210
 40
3.0000000000000004
 50
0
 51
90
  0
ARC
  8
_0-0_LAY
  6
CONTINUOUS
 62
    2
 10
-604.49614636463366
 20
1210
 40
3.0000000000000004
 50
90
 51
180
  0
LINE
  8
_0-0_LAY
  6
CONTINUOUS
 62
    2
 10
-607.49614636463366
 20
1182
 11
-607.49614636463366
 21
1210
  0
ARC
  8
_0-0_LAY
  6
CONTINUOUS
 62
    2
 10
-604.49614636463366
 20
1182
 40
3.0000000000000004
 50
180
 51
270
  0
LINE
  8
_0-0_LAY
  6
CONTINUOUS
 62
    2
 10
-555.4961463646332
 20
1179
 11
-604.49614636463366
 21
1179
  0
ARC
  8
_0-0_LAY
  6
CONTINUOUS
 62
    2
 10
-555.4961463646332
 20
1182
 40
3.0000000000000004
 50
270
 51
0
  0
LINE
  8
_0-0_LAY
  6
CONTINUOUS
 62
    2
 10
-552.49614636463366
 20
1210
 11
-552.49614636463366
 21
1182
  0
LINE
  8
_0-0_LAY
  6
CONTINUOUS
 62
    2
 10
-555.4961463646332
 20
1213
 11
-604.49614636463366
 21
1213
  0
ARC
  8
_0-0_LAY
  6
CONTINUOUS
 62
    2
 10
-555.4961463646332
 20
1210
 40
3.0000000000000004
 50
0
 51
90
  0
ARC
  8
_0-0_LAY
  6
CONTINUOUS
 62
    2
 10
-536.49614636463366
 20
1210
 40
3.0000000000000004
 50
90
 51
180
  0
LINE
  8
_0-0_LAY
  6
CONTINUOUS
 62
    2
 10
-539.49614636463366
 20
1182
 11
-539.49614636463366
 21
1210
  0
ARC
  8
_0-0_LAY
  6
CONTINUOUS
 62
    2
 10
-536.49614636463366
 20
1182
 40
3.0000000000000004
 50
180
 51
270
  0
LINE
  8
_0-0_LAY
  6
CONTINUOUS
 62
    2
 10
-487.49614636463366
 20
1213
 11
-536.49614636463366
 21
1213
  0
ARC
  8
_0-0_LAY
  6
CONTINUOUS
 62
    2
 10
-487.49614636463366
 20
1210
 40
3.0000000000000004
 50
0
 51
90
  0
LINE
  8
_0-0_LAY
  6
CONTINUOUS
 62
    2
 10
-484.49614636463366
 20
1182
 11
-484.49614636463366
 21
1210
  0
LINE
  8
_0-0_LAY
  6
CONTINUOUS
 62
    2
 10
-487.49614636463366
 20
1179
 11
-536.49614636463366
 21
1179
  0
ARC
  8
_0-0_LAY
  6
CONTINUOUS
 62
    2
 10
-487.49614636463366
 20
1182
 40
3.0000000000000004
 50
270
 51
0
  0
ARC
  8
_0-0_LAY
  6
CONTINUOUS
 62
    2
 10
-468.49614636463366
 20
1182
 40
3.0000000000000004
 50
180
 51
270
  0
LINE
  8
_0-0_LAY
  6
CONTINUOUS
 62
    2
 10
-471.49614636463366
 20
1210
 11
-471.49614636463366
 21
1182
  0
ARC
  8
_0-0_LAY
  6
CONTINUOUS
 62
    2
 10
-468.49614636463366
 20
1210
 40
3.0000000000000004
 50
90
 51
180
  0
LINE
  8
_0-0_LAY
  6
CONTINUOUS
 62
    2
 10
-419.49614636463366
 20
1213
 11
-468.49614636463366
 21
1213
  0
ARC
  8
_0-0_LAY
  6
CONTINUOUS
 62
    2
 10
-419.49614636463366
 20
1210
 40
3.0000000000000004
 50
0
 51
90
  0
LINE
  8
_0-0_LAY
  6
CONTINUOUS
 62
    2
 10
-416.49614636463366
 20
1182
 11
-416.49614636463366
 21
1210
  0
LINE
  8
_0-0_LAY
  6
CONTINUOUS
 62
    2
 10
-419.49614636463366
 20
1179
 11
-468.49614636463366
 21
1179
  0
ARC
  8
_0-0_LAY
  6
CONTINUOUS
 62
    2
 10
-419.49614636463366
 20
1182
 40
3.0000000000000004
 50
270
 51
0
  0
ARC
  8
_0-0_LAY
  6
CONTINUOUS
 62
    2
 10
-400.49614636463366
 20
1182
 40
3.0000000000000004
 50
180
 51
270
  0
LINE
  8
_0-0_LAY
  6
CONTINUOUS
 62
    2
 10
-403.49614636463366
 20
1210
 11
-403.49614636463366
 21
1182
  0
ARC
  8
_0-0_LAY
  6
CONTINUOUS
 62
    2
 10
-400.49614636463366
 20
1210
 40
3.0000000000000004
 50
90
 51
180
  0
LINE
  8
_0-0_LAY
  6
CONTINUOUS
 62
    2
 10
-351.4961463646332
 20
1213
 11
-400.49614636463366
 21
1213
  0
ARC
  8
_0-0_LAY
  6
CONTINUOUS
 62
    2
 10
-351.4961463646332
 20
1210
 40
3.0000000000000004
 50
0
 51
90
  0
LINE
  8
_0-0_LAY
  6
CONTINUOUS
 62
    2
 10
-348.49614636463366
 20
1182
 11
-348.49614636463366
 21
1210
  0
LINE
  8
_0-0_LAY
  6
CONTINUOUS
 62
    2
 10
-351.4961463646332
 20
1179
 11
-400.49614636463366
 21
1179
  0
ARC
  8
_0-0_LAY
  6
CONTINUOUS
 62
    2
 10
-351.4961463646332
 20
1182
 40
3.0000000000000004
 50
270
 51
0
  0
ARC
  8
_0-0_LAY
  6
CONTINUOUS
 62
    2
 10
-332.49614636463389
 20
1210
 40
3.0000000000000004
 50
90
 51
180
  0
LINE
  8
_0-0_LAY
  6
CONTINUOUS
 62
    2
 10
-335.49614636463366
 20
1182
 11
-335.49614636463366
 21
1210
  0
ARC
  8
_0-0_LAY
  6
CONTINUOUS
 62
    2
 10
-332.49614636463389
 20
1182
 40
3.0000000000000004
 50
180
 51
270
  0
LINE
  8
_0-0_LAY
  6
CONTINUOUS
 62
    2
 10
-283.49614636463366
 20
1179
 11
-332.49614636463389
 21
1179
  0
ARC
  8
_0-0_LAY
  6
CONTINUOUS
 62
    2
 10
-283.49614636463366
 20
1182
 40
3.0000000000000004
 50
270
 51
0
  0
LINE
  8
_0-0_LAY
  6
CONTINUOUS
 62
    2
 10
-280.49614636463366
 20
1210
 11
-280.49614636463366
 21
1182
  0
LINE
  8
_0-0_LAY
  6
CONTINUOUS
 62
    2
 10
-283.49614636463366
 20
1213
 11
-332.49614636463389
 21
1213
  0
ARC
  8
_0-0_LAY
  6
CONTINUOUS
 62
    2
 10
-283.49614636463366
 20
1210
 40
3.0000000000000004
 50
0
 51
90
  0
ARC
  8
_0-0_LAY
  6
CONTINUOUS
 62
    2
 10
-264.49614636463366
 20
1210
 40
3.0000000000000004
 50
90
 51
180
  0
LINE
  8
_0-0_LAY
  6
CONTINUOUS
 62
    2
 10
-267.49614636463389
 20
1182
 11
-267.49614636463389
 21
1210
  0
ARC
  8
_0-0_LAY
  6
CONTINUOUS
 62
    2
 10
-264.49614636463366
 20
1182
 40
3.0000000000000004
 50
180
 51
270
  0
LINE
  8
_0-0_LAY
  6
CONTINUOUS
 62
    2
 10
-215.49614636463366
 20
1179
 11
-264.49614636463366
 21
1179
  0
ARC
  8
_0-0_LAY
  6
CONTINUOUS
 62
    2
 10
-215.49614636463366
 20
1182
 40
3.0000000000000004
 50
270
 51
0
  0
LINE
  8
_0-0_LAY
  6
CONTINUOUS
 62
    2
 10
-212.49614636463389
 20
1210
 11
-212.49614636463389
 21
1182
  0
LINE
  8
_0-0_LAY
  6
CONTINUOUS
 62
    2
 10
-215.49614636463366
 20
1213
 11
-264.49614636463366
 21
1213
  0
ARC
  8
_0-0_LAY
  6
CONTINUOUS
 62
    2
 10
-215.49614636463366
 20
1210
 40
3.0000000000000004
 50
0
 51
90
  0
ARC
  8
_0-0_LAY
  6
CONTINUOUS
 62
    2
 10
-196.49614636463389
 20
1210
 40
3.0000000000000004
 50
90
 51
180
  0
LINE
  8
_0-0_LAY
  6
CONTINUOUS
 62
    2
 10
-199.49614636463366
 20
1182
 11
-199.49614636463366
 21
1210
  0
ARC
  8
_0-0_LAY
  6
CONTINUOUS
 62
    2
 10
-196.49614636463389
 20
1182
 40
3.0000000000000004
 50
180
 51
270
  0
LINE
  8
_0-0_LAY
  6
CONTINUOUS
 62
    2
 10
-145.99614636463366
 20
1179
 11
-196.49614636463389
 21
1179
  0
ARC
  8
_0-0_LAY
  6
CONTINUOUS
 62
    2
 10
-145.99614636463366
 20
1182
 40
3.0000000000000004
 50
270
 51
0
  0
LINE
  8
_0-0_LAY
  6
CONTINUOUS
 62
    2
 10
-142.99614636463366
 20
1210
 11
-142.99614636463366
 21
1182
  0
LINE
  8
_0-0_LAY
  6
CONTINUOUS
 62
    2
 10
-145.99614636463366
 20
1213
 11
-196.49614636463389
 21
1213
  0
ARC
  8
_0-0_LAY
  6
CONTINUOUS
 62
    2
 10
-145.99614636463366
 20
1210
 40
3.0000000000000004
 50
0
 51
90
  0
LINE
  8
_0-0_LAY
  6
CONTINUOUS
 62
    2
 10
-182.99680636463404
 20
763.00004999999987
 11
-133.08334636463383
 21
763.00004999999987
  0
LINE
  8
_0-0_LAY
  6
CONTINUOUS
 62
    2
 10
-198.99685636463346
 20
794.00009999999997
 11
-198.99685636463346
 21
766.00002999999992
  0
LINE
  8
_0-0_LAY
  6
CONTINUOUS
 62
    2
 10
-602.99685636463346
 20
797.00010999999995
 11
-551.99693636463371
 21
797.00010999999995
  0
LINE
  8
_0-0_LAY
  6
CONTINUOUS
 62
    2
 10
-548.99687636463386
 20
794.00009999999997
 11
-548.99687636463386
 21
766.00002999999992
  0
LINE
  8
_0-0_LAY
  6
CONTINUOUS
 62
    2
 10
-535.99687636463386
 20
766.00002999999992
 11
-535.99687636463386
 21
794.00009999999997
  0
LINE
  8
_0-0_LAY
  6
CONTINUOUS
 62
    2
 10
-532.99686636463366
 20
797.00010999999995
 11
-481.99694636463346
 21
797.00010999999995
  0
LINE
  8
_0-0_LAY
  6
CONTINUOUS
 62
    2
 10
-605.99686636463366
 20
766.00002999999992
 11
-605.99686636463366
 21
794.00009999999997
  0
LINE
  8
_0-0_LAY
  6
CONTINUOUS
 62
    2
 10
-130.49705636463386
 20
794.00009999999997
 11
-130.49705636463386
 21
766.00002999999992
  0
LINE
  8
_0-0_LAY
  6
CONTINUOUS
 62
    2
 10
-532.99686636463366
 20
763.00004999999987
 11
-481.99694636463346
 21
763.00004999999987
  0
LINE
  8
_0-0_LAY
  6
CONTINUOUS
 62
    2
 10
-185.99686636463366
 20
766.00002999999992
 11
-185.99686636463366
 21
794.00009999999997
  0
LINE
  8
_0-0_LAY
  6
CONTINUOUS
 62
    2
 10
-338.99687636463409
 20
794.00009999999997
 11
-338.99687636463409
 21
766.00002999999992
  0
LINE
  8
_0-0_LAY
  6
CONTINUOUS
 62
    2
 10
-322.99692636463374
 20
763.00004999999987
 11
-271.99700636463353
 21
763.00004999999987
  0
LINE
  8
_0-0_LAY
  6
CONTINUOUS
 62
    2
 10
-325.99693636463348
 20
766.00002999999992
 11
-325.99693636463348
 21
794.00009999999997
  0
LINE
  8
_0-0_LAY
  6
CONTINUOUS
 62
    2
 10
-392.99690636463356
 20
797.00010999999995
 11
-341.99693636463371
 21
797.00010999999995
  0
LINE
  8
_0-0_LAY
  6
CONTINUOUS
 62
    2
 10
-322.99692636463374
 20
797.00010999999995
 11
-271.99700636463353
 21
797.00010999999995
  0
LINE
  8
_0-0_LAY
  6
CONTINUOUS
 62
    2
 10
-252.99683636463328
 20
763.00004999999987
 11
-201.99691636463376
 21
763.00004999999987
  0
LINE
  8
_0-0_LAY
  6
CONTINUOUS
 62
    2
 10
-255.99684636463371
 20
766.00002999999992
 11
-255.99684636463371
 21
794.00009999999997
  0
LINE
  8
_0-0_LAY
  6
CONTINUOUS
 62
    2
 10
-252.99683636463328
 20
797.00010999999995
 11
-201.99691636463376
 21
797.00010999999995
  0
LINE
  8
_0-0_LAY
  6
CONTINUOUS
 62
    2
 10
-268.99694636463346
 20
794.00009999999997
 11
-268.99694636463346
 21
766.00002999999992
  0
LINE
  8
_0-0_LAY
  6
CONTINUOUS
 62
    2
 10
-392.99690636463356
 20
763.00004999999987
 11
-341.99693636463371
 21
763.00004999999987
  0
LINE
  8
_0-0_LAY
  6
CONTINUOUS
 62
    2
 10
-395.99691636463376
 20
766.00002999999992
 11
-395.99691636463376
 21
794.00009999999997
  0
LINE
  8
_0-0_LAY
  6
CONTINUOUS
 62
    2
 10
-478.99688636463316
 20
794.00009999999997
 11
-478.99688636463316
 21
766.00002999999992
  0
LINE
  8
_0-0_LAY
  6
CONTINUOUS
 62
    2
 10
-133.08334636463383
 20
797.00010999999995
 11
-182.99680636463404
 21
797.00010999999995
  0
LINE
  8
_0-0_LAY
  6
CONTINUOUS
 62
    2
 10
-465.99689636463381
 20
766.00002999999992
 11
-465.99689636463381
 21
794.00009999999997
  0
LINE
  8
_0-0_LAY
  6
CONTINUOUS
 62
    2
 10
-462.99688636463316
 20
797.00010999999995
 11
-411.99696636463295
 21
797.00010999999995
  0
LINE
  8
_0-0_LAY
  6
CONTINUOUS
 62
    2
 10
-408.99690636463356
 20
794.00009999999997
 11
-408.99690636463356
 21
766.00002999999992
  0
LINE
  8
_0-0_LAY
  6
CONTINUOUS
 62
    2
 10
-462.99688636463316
 20
763.00004999999987
 11
-411.99696636463295
 21
763.00004999999987
  0
LINE
  8
_0-0_LAY
  6
CONTINUOUS
 62
    2
 10
-602.99685636463346
 20
763.00004999999987
 11
-551.99693636463371
 21
763.00004999999987
  0
LINE
  8
_0-0_LAY
  6
CONTINUOUS
 62
    2
 10
-622.09867636463332
 20
763.00004999999987
 11
-671.4958263646331
 21
763.00004999999987
  0
LINE
  8
_0-0_LAY
  6
CONTINUOUS
 62
    2
 10
-689.99601636463331
 20
767.00002999999992
 11
-689.99601636463331
 21
792.99997000000008
  0
LINE
  8
_0-0_LAY
  6
CONTINUOUS
 62
    2
 10
-111.99597636463386
 20
792.99997000000008
 11
-97.995986364633836
 21
792.99997000000008
  0
LINE
  8
_0-0_LAY
  6
CONTINUOUS
 62
    2
 10
-111.99597636463386
 20
767.00002999999992
 11
-97.995986364633836
 21
767.00002999999992
  0
LINE
  8
_0-0_LAY
  6
CONTINUOUS
 62
    2
 10
-706.99608636463336
 20
796.00002999999992
 11
-692.99607636463361
 21
796.00002999999992
  0
LINE
  8
_0-0_LAY
  6
CONTINUOUS
 62
    2
 10
-706.99608636463336
 20
764.00004999999987
 11
-692.99607636463361
 21
764.00004999999987
  0
LINE
  8
_0-0_LAY
  6
CONTINUOUS
 62
    2
 10
-94.996266364633811
 20
770.00004000000104
 11
-94.996266364633811
 21
790.00010999999995
  0
LINE
  8
_0-0_LAY
  6
CONTINUOUS
 62
    2
 10
-707.9961463646332
 20
810.00004999999987
 11
-709.9961463646332
 21
808.00004999999987
  0
LINE
  8
_0-0_LAY
  6
CONTINUOUS
 62
    2
 10
-709.9961463646332
 20
752.00006000000008
 11
-709.9961463646332
 21
761.00004000000104
  0
LINE
  8
_0-0_LAY
  6
CONTINUOUS
 62
    2
 10
-709.9961463646332
 20
752.00006000000008
 11
-707.9961463646332
 21
750.00004999999987
  0
LINE
  8
_0-0_LAY
  6
CONTINUOUS
 62
    2
 10
-116.99609636463356
 20
810.00004999999987
 11
-114.99608636463404
 21
808.00004999999987
  0
LINE
  8
_0-0_LAY
  6
CONTINUOUS
 62
    2
 10
-114.99608636463404
 20
752.00006000000008
 11
-114.99608636463404
 21
764.00004999999987
  0
LINE
  8
_0-0_LAY
  6
CONTINUOUS
 62
    2
 10
-116.99609636463356
 20
750.00004999999987
 11
-707.9961463646332
 21
750.00004999999987
  0
LINE
  8
_0-0_LAY
  6
CONTINUOUS
 62
    2
 10
-114.99608636463404
 20
752.00006000000008
 11
-116.99609636463356
 21
750.00004999999987
  0
LINE
  8
_0-0_LAY
  6
CONTINUOUS
 62
    2
 10
-114.99608636463404
 20
796.00002999999992
 11
-114.99608636463404
 21
808.00004999999987
  0
LINE
  8
_0-0_LAY
  6
CONTINUOUS
 62
    2
 10
-618.99606636463386
 20
766.00002999999992
 11
-618.99606636463386
 21
794.00009999999997
  0
LINE
  8
_0-0_LAY
  6
CONTINUOUS
 62
    2
 10
-621.99608636463336
 20
797.00010999999995
 11
-671.4958263646331
 21
797.00010999999995
  0
LINE
  8
_0-0_LAY
  6
CONTINUOUS
 62
    2
 10
-674.49588636463295
 20
766.00002999999992
 11
-674.49588636463295
 21
794.00009999999997
  0
LINE
  8
_0-0_LAY
  6
CONTINUOUS
 62
    2
 10
-116.99609636463356
 20
810.00004999999987
 11
-707.99617636463381
 21
810.00004999999987
  0
LINE
  8
_0-0_LAY
  6
CONTINUOUS
 62
    2
 10
-709.9961463646332
 20
799.0000399999999
 11
-709.9961463646332
 21
808.00004999999987
  0
ARC
  8
_0-0_LAY
  6
CONTINUOUS
 62
    2
 10
-252.99683636463328
 20
794.00009999999997
 40
3.0000003999999998
 50
90
 51
180
  0
ARC
  8
_0-0_LAY
  6
CONTINUOUS
 62
    2
 10
-322.99692636463374
 20
794.00009999999997
 40
3.0000003999999998
 50
90
 51
180
  0
ARC
  8
_0-0_LAY
  6
CONTINUOUS
 62
    2
 10
-322.99692636463374
 20
766.00002999999992
 40
3.0000003999999998
 50
180
 51
270
  0
ARC
  8
_0-0_LAY
  6
CONTINUOUS
 62
    2
 10
-271.99700636463353
 20
794.00009999999997
 40
3.0000003999999998
 50
0
 51
90
  0
ARC
  8
_0-0_LAY
  6
CONTINUOUS
 62
    2
 10
-252.99683636463328
 20
766.00002999999992
 40
3.0000003999999998
 50
180
 51
270
  0
ARC
  8
_0-0_LAY
  6
CONTINUOUS
 62
    2
 10
-271.99700636463353
 20
766.00002999999992
 40
3.0000003999999998
 50
270
 51
0
  0
ARC
  8
_0-0_LAY
  6
CONTINUOUS
 62
    2
 10
-532.99686636463366
 20
794.00009999999997
 40
3.0000003999999998
 50
90
 51
180
  0
ARC
  8
_0-0_LAY
  6
CONTINUOUS
 62
    2
 10
-532.99686636463366
 20
766.00002999999992
 40
3.0000003999999998
 50
180
 51
270
  0
ARC
  8
_0-0_LAY
  6
CONTINUOUS
 62
    2
 10
-481.99694636463346
 20
766.00002999999992
 40
3.0000003999999998
 50
270
 51
0
  0
ARC
  8
_0-0_LAY
  6
CONTINUOUS
 62
    2
 10
-481.99694636463346
 20
794.00009999999997
 40
3.0000003999999998
 50
0
 51
90
  0
ARC
  8
_0-0_LAY
  6
CONTINUOUS
 62
    2
 10
-602.99685636463346
 20
794.00009999999997
 40
3.0000003999999998
 50
90
 51
180
  0
ARC
  8
_0-0_LAY
  6
CONTINUOUS
 62
    2
 10
-602.99685636463346
 20
766.00002999999992
 40
3.0000003999999998
 50
180
 51
270
  0
ARC
  8
_0-0_LAY
  6
CONTINUOUS
 62
    2
 10
-551.99693636463371
 20
766.00002999999992
 40
3.0000003999999998
 50
270
 51
0
  0
ARC
  8
_0-0_LAY
  6
CONTINUOUS
 62
    2
 10
-551.99693636463371
 20
794.00009999999997
 40
3.0000003999999998
 50
0
 51
90
  0
ARC
  8
_0-0_LAY
  6
CONTINUOUS
 62
    2
 10
-392.99690636463356
 20
794.00009999999997
 40
3.0000003999999998
 50
90
 51
180
  0
ARC
  8
_0-0_LAY
  6
CONTINUOUS
 62
    2
 10
-392.99690636463356
 20
766.00002999999992
 40
3.0000003999999998
 50
180
 51
270
  0
ARC
  8
_0-0_LAY
  6
CONTINUOUS
 62
    2
 10
-341.99693636463371
 20
766.00002999999992
 40
3.0000003999999998
 50
270
 51
0
  0
ARC
  8
_0-0_LAY
  6
CONTINUOUS
 62
    2
 10
-341.99693636463371
 20
794.00009999999997
 40
3.0000003999999998
 50
0
 51
90
  0
ARC
  8
_0-0_LAY
  6
CONTINUOUS
 62
    2
 10
-462.99688636463316
 20
794.00009999999997
 40
3.0000003999999998
 50
90
 51
180
  0
ARC
  8
_0-0_LAY
  6
CONTINUOUS
 62
    2
 10
-462.99688636463316
 20
766.00002999999992
 40
3.0000003999999998
 50
180
 51
270
  0
ARC
  8
_0-0_LAY
  6
CONTINUOUS
 62
    2
 10
-411.99696636463295
 20
766.00002999999992
 40
3.0000003999999998
 50
270
 51
0
  0
ARC
  8
_0-0_LAY
  6
CONTINUOUS
 62
    2
 10
-411.99696636463295
 20
794.00009999999997
 40
3.0000003999999998
 50
0
 51
90
  0
ARC
  8
_0-0_LAY
  6
CONTINUOUS
 62
    2
 10
-671.4958263646331
 20
794.00009999999997
 40
3.0000003999999998
 50
90
 51
180
  0
ARC
  8
_0-0_LAY
  6
CONTINUOUS
 62
    2
 10
-182.99680636463404
 20
766.00002999999992
 40
3.0000003999999998
 50
180
 51
270
  0
ARC
  8
_0-0_LAY
  6
CONTINUOUS
 62
    2
 10
-182.99680636463404
 20
794.00009999999997
 40
3.0000003999999998
 50
90
 51
180
  0
ARC
  8
_0-0_LAY
  6
CONTINUOUS
 62
    2
 10
-133.49711636463394
 20
794.00009999999997
 40
3.0000003999999998
 50
0
 51
90
  0
ARC
  8
_0-0_LAY
  6
CONTINUOUS
 62
    2
 10
-133.49711636463394
 20
766.00002999999992
 40
3.0000003999999998
 50
270
 51
0
  0
ARC
  8
_0-0_LAY
  6
CONTINUOUS
 62
    2
 10
-621.99608636463336
 20
766.00002999999992
 40
3.0000003999999998
 50
270
 51
0
  0
ARC
  8
_0-0_LAY
  6
CONTINUOUS
 62
    2
 10
-621.99608636463336
 20
794.00009999999997
 40
3.0000003999999998
 50
0
 51
90
  0
ARC
  8
_0-0_LAY
  6
CONTINUOUS
 62
    2
 10
-201.99691636463376
 20
794.00009999999997
 40
3.0000003999999998
 50
0
 51
90
  0
ARC
  8
_0-0_LAY
  6
CONTINUOUS
 62
    2
 10
-201.99691636463376
 20
766.00002999999992
 40
3.0000003999999998
 50
270
 51
0
  0
ARC
  8
_0-0_LAY
  6
CONTINUOUS
 62
    2
 10
-706.99608636463336
 20
761.00004000000104
 40
3.0000003999999998
 50
90
 51
180
  0
ARC
  8
_0-0_LAY
  6
CONTINUOUS
 62
    2
 10
-111.99597636463386
 20
796.00002999999992
 40
3.0000003999999998
 50
180
 51
270
  0
ARC
  8
_0-0_LAY
  6
CONTINUOUS
 62
    2
 10
-692.99607636463361
 20
767.00002999999992
 40
3.0000003999999998
 50
270
 51
0
  0
ARC
  8
_0-0_LAY
  6
CONTINUOUS
 62
    2
 10
-706.99608636463336
 20
799.0000399999999
 40
3.0000003999999998
 50
180
 51
270
  0
ARC
  8
_0-0_LAY
  6
CONTINUOUS
 62
    2
 10
-692.99607636463361
 20
792.99997000000008
 40
3.0000003999999998
 50
0
 51
90
  0
ARC
  8
_0-0_LAY
  6
CONTINUOUS
 62
    2
 10
-97.995986364633836
 20
790.00010999999995
 40
3.0000003999999998
 50
0
 51
90
  0
ARC
  8
_0-0_LAY
  6
CONTINUOUS
 62
    2
 10
-97.995986364633836
 20
770.00004000000104
 40
3.0000003999999998
 50
270
 51
0
  0
ARC
  8
_0-0_LAY
  6
CONTINUOUS
 62
    2
 10
-111.99597636463386
 20
764.00004999999987
 40
3.0000003999999998
 50
90
 51
180
  0
ARC
  8
_0-0_LAY
  6
CONTINUOUS
 62
    2
 10
-671.4958263646331
 20
766.00002999999992
 40
3.0000003999999998
 50
180
 51
270
  0
LINE
  8
_0-0_LAY
  6
CONTINUOUS
 62
    2
 10
-709.99622636463346
 20
335.99995000000013
 11
-707.99623636463366
 21
334
  0
LINE
  8
_0-0_LAY
  6
CONTINUOUS
 62
    2
 10
-707.9961463646332
 20
394.0000100000002
 11
-709.99615636463341
 21
392.0000100000002
  0
LINE
  8
_0-0_LAY
  6
CONTINUOUS
 62
    2
 10
-706.99616636463361
 20
347.99999000000003
 11
-692.99616636463315
 21
347.99999000000003
  0
LINE
  8
_0-0_LAY
  6
CONTINUOUS
 62
    2
 10
-709.99615636463341
 20
344.99998000000005
 11
-709.99615636463341
 21
335.99995000000013
  0
LINE
  8
_0-0_LAY
  6
CONTINUOUS
 62
    2
 10
-689.99615636463341
 20
351.00000000000023
 11
-689.99615636463341
 21
377.00000000000023
  0
LINE
  8
_0-0_LAY
  6
CONTINUOUS
 62
    2
 10
-706.99616636463361
 20
380.0000100000002
 11
-692.99616636463315
 21
380.0000100000002
  0
LINE
  8
_0-0_LAY
  6
CONTINUOUS
 62
    2
 10
183.00367363536589
 20
394.0000100000002
 11
185.00387363536697
 21
392.0000100000002
  0
LINE
  8
_0-0_LAY
  6
CONTINUOUS
 62
    2
 10
185.00387363536697
 20
335.99999000000025
 11
183.00367363536589
 21
334
  0
LINE
  8
_0-0_LAY
  6
CONTINUOUS
 62
    2
 10
188.00387363536584
 20
351.00000000000023
 11
202.00387363536584
 21
351.00000000000023
  0
LINE
  8
_0-0_LAY
  6
CONTINUOUS
 62
    2
 10
185.00387363536697
 20
347.99999000000003
 11
185.00387363536697
 21
335.99999000000025
  0
LINE
  8
_0-0_LAY
  6
CONTINUOUS
 62
    2
 10
185.00387363536697
 20
380.0000100000002
 11
185.00387363536697
 21
392.0000100000002
  0
LINE
  8
_0-0_LAY
  6
CONTINUOUS
 62
    2
 10
205.00387363536697
 20
354.0000100000002
 11
205.00387363536697
 21
373.99999000000014
  0
LINE
  8
_0-0_LAY
  6
CONTINUOUS
 62
    2
 10
202.00387363536584
 20
377.00000000000023
 11
188.00387363536584
 21
377.00000000000023
  0
LINE
  8
_0-0_LAY
  6
CONTINUOUS
 62
    2
 10
-675.99615636463341
 20
377.00004000000024
 11
-675.99615636463341
 21
351.00000000000023
  0
LINE
  8
_0-0_LAY
  6
CONTINUOUS
 62
    2
 10
-621.24618636463356
 20
380.0000100000002
 11
-672.9961463646332
 21
380.0000100000002
  0
LINE
  8
_0-0_LAY
  6
CONTINUOUS
 62
    2
 10
-618.24617636463381
 20
351.00000000000023
 11
-618.24617636463381
 21
377.00004000000024
  0
LINE
  8
_0-0_LAY
  6
CONTINUOUS
 62
    2
 10
-621.24618636463356
 20
347.99999000000003
 11
-672.9961463646332
 21
347.99999000000003
  0
LINE
  8
_0-0_LAY
  6
CONTINUOUS
 62
    2
 10
-604.24617636463336
 20
377.00004000000024
 11
-604.24617636463336
 21
351.00000000000023
  0
LINE
  8
_0-0_LAY
  6
CONTINUOUS
 62
    2
 10
-549.49610636463331
 20
380.0000100000002
 11
-601.24616636463315
 21
380.0000100000002
  0
LINE
  8
_0-0_LAY
  6
CONTINUOUS
 62
    2
 10
-546.4960963646331
 20
351.00000000000023
 11
-546.4960963646331
 21
377.00004000000024
  0
LINE
  8
_0-0_LAY
  6
CONTINUOUS
 62
    2
 10
-549.49610636463331
 20
347.99999000000003
 11
-601.24616636463315
 21
347.99999000000003
  0
LINE
  8
_0-0_LAY
  6
CONTINUOUS
 62
    2
 10
-532.49610636463376
 20
377.00004000000024
 11
-532.49610636463376
 21
351.00000000000023
  0
LINE
  8
_0-0_LAY
  6
CONTINUOUS
 62
    2
 10
-477.74610636463376
 20
380.0000100000002
 11
-529.49616636463315
 21
380.0000100000002
  0
LINE
  8
_0-0_LAY
  6
CONTINUOUS
 62
    2
 10
-474.74617636463336
 20
351.00000000000023
 11
-474.74617636463336
 21
377.00004000000024
  0
LINE
  8
_0-0_LAY
  6
CONTINUOUS
 62
    2
 10
-477.74610636463376
 20
347.99999000000003
 11
-529.49616636463315
 21
347.99999000000003
  0
LINE
  8
_0-0_LAY
  6
CONTINUOUS
 62
    2
 10
-460.74617636463381
 20
377.00004000000024
 11
-460.74617636463381
 21
351.00000000000023
  0
LINE
  8
_0-0_LAY
  6
CONTINUOUS
 62
    2
 10
-405.99610636463376
 20
380.0000100000002
 11
-457.74616636463315
 21
380.0000100000002
  0
LINE
  8
_0-0_LAY
  6
CONTINUOUS
 62
    2
 10
-402.99617636463381
 20
351.00000000000023
 11
-402.99617636463381
 21
377.00004000000024
  0
LINE
  8
_0-0_LAY
  6
CONTINUOUS
 62
    2
 10
-405.99610636463376
 20
347.99999000000003
 11
-457.74616636463315
 21
347.99999000000003
  0
LINE
  8
_0-0_LAY
  6
CONTINUOUS
 62
    2
 10
-388.99617636463336
 20
377.00004000000024
 11
-388.99617636463336
 21
351.00000000000023
  0
LINE
  8
_0-0_LAY
  6
CONTINUOUS
 62
    2
 10
-334.24610636463376
 20
380.0000100000002
 11
-385.99616636463361
 21
380.0000100000002
  0
LINE
  8
_0-0_LAY
  6
CONTINUOUS
 62
    2
 10
-331.24609636463356
 20
351.00000000000023
 11
-331.24609636463356
 21
377.00004000000024
  0
LINE
  8
_0-0_LAY
  6
CONTINUOUS
 62
    2
 10
-334.24610636463376
 20
347.99999000000003
 11
-385.99616636463361
 21
347.99999000000003
  0
LINE
  8
_0-0_LAY
  6
CONTINUOUS
 62
    2
 10
-317.24609636463356
 20
377.00004000000024
 11
-317.24609636463356
 21
351.00000000000023
  0
LINE
  8
_0-0_LAY
  6
CONTINUOUS
 62
    2
 10
-262.49614636463366
 20
380.0000100000002
 11
-314.24608636463336
 21
380.0000100000002
  0
LINE
  8
_0-0_LAY
  6
CONTINUOUS
 62
    2
 10
-259.49613636463346
 20
351.00000000000023
 11
-259.49613636463346
 21
377.00004000000024
  0
LINE
  8
_0-0_LAY
  6
CONTINUOUS
 62
    2
 10
-262.49614636463366
 20
347.99999000000003
 11
-314.24608636463336
 21
347.99999000000003
  0
LINE
  8
_0-0_LAY
  6
CONTINUOUS
 62
    2
 10
-245.49613636463346
 20
377.00004000000024
 11
-245.49613636463346
 21
351.00000000000023
  0
LINE
  8
_0-0_LAY
  6
CONTINUOUS
 62
    2
 10
-190.74606636463341
 20
380.0000100000002
 11
-242.49612636463371
 21
380.0000100000002
  0
LINE
  8
_0-0_LAY
  6
CONTINUOUS
 62
    2
 10
-187.74605636463366
 20
351.00000000000023
 11
-187.74605636463366
 21
377.00004000000024
  0
LINE
  8
_0-0_LAY
  6
CONTINUOUS
 62
    2
 10
-190.74606636463341
 20
347.99999000000003
 11
-242.49612636463371
 21
347.99999000000003
  0
LINE
  8
_0-0_LAY
  6
CONTINUOUS
 62
    2
 10
-173.74605636463366
 20
377.00004000000024
 11
-173.74605636463366
 21
351.00000000000023
  0
LINE
  8
_0-0_LAY
  6
CONTINUOUS
 62
    2
 10
-118.99613636463346
 20
380.0000100000002
 11
-170.74604636463346
 21
380.0000100000002
  0
LINE
  8
_0-0_LAY
  6
CONTINUOUS
 62
    2
 10
-115.99612636463348
 20
351.00000000000023
 11
-115.99612636463348
 21
377.00004000000024
  0
LINE
  8
_0-0_LAY
  6
CONTINUOUS
 62
    2
 10
-118.99613636463346
 20
347.99999000000003
 11
-170.74604636463346
 21
347.99999000000003
  0
LINE
  8
_0-0_LAY
  6
CONTINUOUS
 62
    2
 10
-101.99613636463346
 20
377.00004000000024
 11
-101.99613636463346
 21
351.00000000000023
  0
LINE
  8
_0-0_LAY
  6
CONTINUOUS
 62
    2
 10
-47.246066364633862
 20
380.0000100000002
 11
-98.996126364633255
 21
380.0000100000002
  0
LINE
  8
_0-0_LAY
  6
CONTINUOUS
 62
    2
 10
-44.246056364634114
 20
351.00000000000023
 11
-44.246056364634114
 21
377.00004000000024
  0
LINE
  8
_0-0_LAY
  6
CONTINUOUS
 62
    2
 10
-47.246066364633862
 20
347.99999000000003
 11
-98.996126364633255
 21
347.99999000000003
  0
LINE
  8
_0-0_LAY
  6
CONTINUOUS
 62
    2
 10
-30.246056364633205
 20
377.00004000000024
 11
-30.246056364633205
 21
351.00000000000023
  0
LINE
  8
_0-0_LAY
  6
CONTINUOUS
 62
    2
 10
24.503863635366997
 20
380.0000100000002
 11
-27.246046364633003
 21
380.0000100000002
  0
LINE
  8
_0-0_LAY
  6
CONTINUOUS
 62
    2
 10
27.503873635366972
 20
351.00000000000023
 11
27.503873635366972
 21
377.00004000000024
  0
LINE
  8
_0-0_LAY
  6
CONTINUOUS
 62
    2
 10
24.503863635366997
 20
347.99999000000003
 11
-27.246046364633003
 21
347.99999000000003
  0
LINE
  8
_0-0_LAY
  6
CONTINUOUS
 62
    2
 10
41.503873635365835
 20
377.00004000000024
 11
41.503873635365835
 21
351.00000000000023
  0
LINE
  8
_0-0_LAY
  6
CONTINUOUS
 62
    2
 10
96.253933635365911
 20
380.0000100000002
 11
44.503883635365582
 21
380.0000100000002
  0
LINE
  8
_0-0_LAY
  6
CONTINUOUS
 62
    2
 10
99.253873635365835
 20
351.00000000000023
 11
99.253873635365835
 21
377.00004000000024
  0
LINE
  8
_0-0_LAY
  6
CONTINUOUS
 62
    2
 10
96.253933635365911
 20
347.99999000000003
 11
44.503883635365582
 21
347.99999000000003
  0
LINE
  8
_0-0_LAY
  6
CONTINUOUS
 62
    2
 10
113.25387363536674
 20
377.00004000000024
 11
113.25387363536674
 21
351.00000000000023
  0
LINE
  8
_0-0_LAY
  6
CONTINUOUS
 62
    2
 10
168.003773635367
 20
380.0000100000002
 11
116.25387363536584
 21
380.0000100000002
  0
LINE
  8
_0-0_LAY
  6
CONTINUOUS
 62
    2
 10
171.00387363536584
 20
351.00000000000023
 11
171.00387363536584
 21
377.00004000000024
  0
LINE
  8
_0-0_LAY
  6
CONTINUOUS
 62
    2
 10
168.003773635367
 20
347.99999000000003
 11
116.25387363536584
 21
347.99999000000003
  0
LINE
  8
_0-0_LAY
  6
CONTINUOUS
 62
    2
 10
183.00367363536589
 20
334
 11
-707.9961463646332
 21
334
  0
LINE
  8
_0-0_LAY
  6
CONTINUOUS
 62
    2
 10
183.00367363536589
 20
394.0000100000002
 11
-707.9961463646332
 21
394.0000100000002
  0
LINE
  8
_0-0_LAY
  6
CONTINUOUS
 62
    2
 10
-709.99615636463341
 20
383.00002000000006
 11
-709.99615636463341
 21
392.0000100000002
  0
ARC
  8
_0-0_LAY
  6
CONTINUOUS
 62
    2
 10
-692.99616636463315
 20
377.00000000000023
 40
3
 50
0
 51
90
  0
ARC
  8
_0-0_LAY
  6
CONTINUOUS
 62
    2
 10
-692.99616636463315
 20
351.00000000000023
 40
3
 50
270
 51
0
  0
ARC
  8
_0-0_LAY
  6
CONTINUOUS
 62
    2
 10
-706.99616636463361
 20
344.99998000000005
 40
3
 50
90
 51
180
  0
ARC
  8
_0-0_LAY
  6
CONTINUOUS
 62
    2
 10
-706.99616636463361
 20
383.00002000000006
 40
3
 50
180
 51
270
  0
ARC
  8
_0-0_LAY
  6
CONTINUOUS
 62
    2
 10
188.00387363536584
 20
380.0000100000002
 40
3
 50
180
 51
270
  0
ARC
  8
_0-0_LAY
  6
CONTINUOUS
 62
    2
 10
202.00387363536584
 20
373.99999000000014
 40
3
 50
0
 51
90
  0
ARC
  8
_0-0_LAY
  6
CONTINUOUS
 62
    2
 10
202.00387363536584
 20
354.0000100000002
 40
3
 50
270
 51
0
  0
ARC
  8
_0-0_LAY
  6
CONTINUOUS
 62
    2
 10
188.00387363536584
 20
347.99999000000003
 40
3
 50
90
 51
180
  0
ARC
  8
_0-0_LAY
  6
CONTINUOUS
 62
    2
 10
-672.9961463646332
 20
351.00000000000023
 40
3
 50
180
 51
270
  0
ARC
  8
_0-0_LAY
  6
CONTINUOUS
 62
    2
 10
-672.9961463646332
 20
377.00004000000024
 40
3
 50
90
 51
180
  0
ARC
  8
_0-0_LAY
  6
CONTINUOUS
 62
    2
 10
-621.24618636463356
 20
377.00004000000024
 40
3
 50
0
 51
90
  0
ARC
  8
_0-0_LAY
  6
CONTINUOUS
 62
    2
 10
-621.24618636463356
 20
351.00000000000023
 40
3
 50
270
 51
0
  0
ARC
  8
_0-0_LAY
  6
CONTINUOUS
 62
    2
 10
-601.24616636463315
 20
351.00000000000023
 40
3
 50
180
 51
270
  0
ARC
  8
_0-0_LAY
  6
CONTINUOUS
 62
    2
 10
-601.24616636463315
 20
377.00004000000024
 40
3
 50
90
 51
180
  0
ARC
  8
_0-0_LAY
  6
CONTINUOUS
 62
    2
 10
-549.49610636463331
 20
377.00004000000024
 40
3
 50
0
 51
90
  0
ARC
  8
_0-0_LAY
  6
CONTINUOUS
 62
    2
 10
-549.49610636463331
 20
351.00000000000023
 40
3
 50
270
 51
0
  0
ARC
  8
_0-0_LAY
  6
CONTINUOUS
 62
    2
 10
-529.49616636463315
 20
351.00000000000023
 40
3
 50
180
 51
270
  0
ARC
  8
_0-0_LAY
  6
CONTINUOUS
 62
    2
 10
-529.49616636463315
 20
377.00004000000024
 40
3
 50
90
 51
180
  0
ARC
  8
_0-0_LAY
  6
CONTINUOUS
 62
    2
 10
-477.74610636463376
 20
377.00004000000024
 40
3
 50
0
 51
90
  0
ARC
  8
_0-0_LAY
  6
CONTINUOUS
 62
    2
 10
-477.74610636463376
 20
351.00000000000023
 40
3
 50
270
 51
0
  0
ARC
  8
_0-0_LAY
  6
CONTINUOUS
 62
    2
 10
-457.74616636463315
 20
351.00000000000023
 40
3
 50
180
 51
270
  0
ARC
  8
_0-0_LAY
  6
CONTINUOUS
 62
    2
 10
-457.74616636463315
 20
377.00004000000024
 40
3
 50
90
 51
180
  0
ARC
  8
_0-0_LAY
  6
CONTINUOUS
 62
    2
 10
-405.99610636463376
 20
377.00004000000024
 40
3
 50
0
 51
90
  0
ARC
  8
_0-0_LAY
  6
CONTINUOUS
 62
    2
 10
-405.99610636463376
 20
351.00000000000023
 40
3
 50
270
 51
0
  0
ARC
  8
_0-0_LAY
  6
CONTINUOUS
 62
    2
 10
-385.99616636463361
 20
351.00000000000023
 40
3
 50
180
 51
270
  0
ARC
  8
_0-0_LAY
  6
CONTINUOUS
 62
    2
 10
-385.99616636463361
 20
377.00004000000024
 40
3
 50
90
 51
180
  0
ARC
  8
_0-0_LAY
  6
CONTINUOUS
 62
    2
 10
-334.24610636463376
 20
377.00004000000024
 40
3
 50
0
 51
90
  0
ARC
  8
_0-0_LAY
  6
CONTINUOUS
 62
    2
 10
-334.24610636463376
 20
351.00000000000023
 40
3
 50
270
 51
0
  0
ARC
  8
_0-0_LAY
  6
CONTINUOUS
 62
    2
 10
-314.24608636463336
 20
351.00000000000023
 40
3
 50
180
 51
270
  0
ARC
  8
_0-0_LAY
  6
CONTINUOUS
 62
    2
 10
-314.24608636463336
 20
377.00004000000024
 40
3
 50
90
 51
180
  0
ARC
  8
_0-0_LAY
  6
CONTINUOUS
 62
    2
 10
-262.49614636463366
 20
377.00004000000024
 40
3
 50
0
 51
90
  0
ARC
  8
_0-0_LAY
  6
CONTINUOUS
 62
    2
 10
-262.49614636463366
 20
351.00000000000023
 40
3
 50
270
 51
0
  0
ARC
  8
_0-0_LAY
  6
CONTINUOUS
 62
    2
 10
-242.49612636463371
 20
351.00000000000023
 40
3
 50
180
 51
270
  0
ARC
  8
_0-0_LAY
  6
CONTINUOUS
 62
    2
 10
-242.49612636463371
 20
377.00004000000024
 40
3
 50
90
 51
180
  0
ARC
  8
_0-0_LAY
  6
CONTINUOUS
 62
    2
 10
-190.74606636463341
 20
377.00004000000024
 40
3
 50
0
 51
90
  0
ARC
  8
_0-0_LAY
  6
CONTINUOUS
 62
    2
 10
-190.74606636463341
 20
351.00000000000023
 40
3
 50
270
 51
0
  0
ARC
  8
_0-0_LAY
  6
CONTINUOUS
 62
    2
 10
-170.74604636463346
 20
351.00000000000023
 40
3
 50
180
 51
270
  0
ARC
  8
_0-0_LAY
  6
CONTINUOUS
 62
    2
 10
-170.74604636463346
 20
377.00004000000024
 40
3
 50
90
 51
180
  0
ARC
  8
_0-0_LAY
  6
CONTINUOUS
 62
    2
 10
-118.99613636463346
 20
377.00004000000024
 40
3
 50
0
 51
90
  0
ARC
  8
_0-0_LAY
  6
CONTINUOUS
 62
    2
 10
-118.99613636463346
 20
351.00000000000023
 40
3
 50
270
 51
0
  0
ARC
  8
_0-0_LAY
  6
CONTINUOUS
 62
    2
 10
-98.996126364633255
 20
351.00000000000023
 40
3
 50
180
 51
270
  0
ARC
  8
_0-0_LAY
  6
CONTINUOUS
 62
    2
 10
-98.996126364633255
 20
377.00004000000024
 40
3
 50
90
 51
180
  0
ARC
  8
_0-0_LAY
  6
CONTINUOUS
 62
    2
 10
-47.246066364633862
 20
377.00004000000024
 40
3
 50
0
 51
90
  0
ARC
  8
_0-0_LAY
  6
CONTINUOUS
 62
    2
 10
-47.246066364633862
 20
351.00000000000023
 40
3
 50
270
 51
0
  0
ARC
  8
_0-0_LAY
  6
CONTINUOUS
 62
    2
 10
-27.246046364633003
 20
351.00000000000023
 40
3
 50
180
 51
270
  0
ARC
  8
_0-0_LAY
  6
CONTINUOUS
 62
    2
 10
-27.246046364633003
 20
377.00004000000024
 40
3
 50
90
 51
180
  0
ARC
  8
_0-0_LAY
  6
CONTINUOUS
 62
    2
 10
24.503863635366997
 20
377.00004000000024
 40
3
 50
0
 51
90
  0
ARC
  8
_0-0_LAY
  6
CONTINUOUS
 62
    2
 10
24.503863635366997
 20
351.00000000000023
 40
3
 50
270
 51
0
  0
ARC
  8
_0-0_LAY
  6
CONTINUOUS
 62
    2
 10
44.503883635365582
 20
351.00000000000023
 40
3
 50
180
 51
270
  0
ARC
  8
_0-0_LAY
  6
CONTINUOUS
 62
    2
 10
44.503883635365582
 20
377.00004000000024
 40
3
 50
90
 51
180
  0
ARC
  8
_0-0_LAY
  6
CONTINUOUS
 62
    2
 10
96.253933635365911
 20
377.00004000000024
 40
3
 50
0
 51
90
  0
ARC
  8
_0-0_LAY
  6
CONTINUOUS
 62
    2
 10
96.253933635365911
 20
351.00000000000023
 40
3
 50
270
 51
0
  0
ARC
  8
_0-0_LAY
  6
CONTINUOUS
 62
    2
 10
116.25387363536584
 20
351.00000000000023
 40
3
 50
180
 51
270
  0
ARC
  8
_0-0_LAY
  6
CONTINUOUS
 62
    2
 10
116.25387363536584
 20
377.00004000000024
 40
3
 50
90
 51
180
  0
ARC
  8
_0-0_LAY
  6
CONTINUOUS
 62
    2
 10
168.003773635367
 20
377.00004000000024
 40
3
 50
0
 51
90
  0
ARC
  8
_0-0_LAY
  6
CONTINUOUS
 62
    2
 10
168.003773635367
 20
351.00000000000023
 40
3
 50
270
 51
0
  0
ARC
  8
_0-0_LAY
  6
CONTINUOUS
 62
    2
 10
2126.7947627262738
 20
2041
 40
3.0000000000000004
 50
90
 51
180
  0
LINE
  8
_0-0_LAY
  6
CONTINUOUS
 62
    2
 10
2179.2947627262747
 20
2044
 11
2126.7947627262738
 21
2044
  0
ARC
  8
_0-0_LAY
  6
CONTINUOUS
 62
    2
 10
2179.2947627262747
 20
2041
 40
3.0000000000000004
 50
0
 51
90
  0
LINE
  8
_0-0_LAY
  6
CONTINUOUS
 62
    2
 10
2182.2947627262747
 20
2015
 11
2182.2947627262747
 21
2041
  0
ARC
  8
_0-0_LAY
  6
CONTINUOUS
 62
    2
 10
2179.2947627262747
 20
2015
 40
3.0000000000000004
 50
270
 51
0
  0
LINE
  8
_0-0_LAY
  6
CONTINUOUS
 62
    2
 10
2123.7947627262747
 20
2015
 11
2123.7947627262747
 21
2041
  0
LINE
  8
_0-0_LAY
  6
CONTINUOUS
 62
    2
 10
2126.7947627262738
 20
2012
 11
2179.2947627262747
 21
2012
  0
ARC
  8
_0-0_LAY
  6
CONTINUOUS
 62
    2
 10
2126.7947627262738
 20
2015
 40
3.0000000000000004
 50
180
 51
270
  0
ARC
  8
_0-0_LAY
  6
CONTINUOUS
 62
    2
 10
2199.2947627262738
 20
2041
 40
3.0000000000000004
 50
90
 51
180
  0
LINE
  8
_0-0_LAY
  6
CONTINUOUS
 62
    2
 10
2196.2947627262747
 20
2015
 11
2196.2947627262747
 21
2041
  0
ARC
  8
_0-0_LAY
  6
CONTINUOUS
 62
    2
 10
2199.2947627262738
 20
2015
 40
3.0000000000000004
 50
180
 51
270
  0
ARC
  8
_0-0_LAY
  6
CONTINUOUS
 62
    2
 10
1184.2947627262738
 20
2041
 40
3.0000000000000004
 50
90
 51
180
  0
LINE
  8
_0-0_LAY
  6
CONTINUOUS
 62
    2
 10
1181.2947627262738
 20
2015
 11
1181.2947627262738
 21
2041
  0
ARC
  8
_0-0_LAY
  6
CONTINUOUS
 62
    2
 10
1184.2947627262738
 20
2015
 40
3.0000000000000004
 50
180
 51
270
  0
LINE
  8
_0-0_LAY
  6
CONTINUOUS
 62
    2
 10
1236.7947627262738
 20
2012
 11
1184.2947627262738
 21
2012
  0
ARC
  8
_0-0_LAY
  6
CONTINUOUS
 62
    2
 10
1236.7947627262738
 20
2015
 40
3.0000000000000004
 50
270
 51
0
  0
LINE
  8
_0-0_LAY
  6
CONTINUOUS
 62
    2
 10
1239.7947627262738
 20
2041
 11
1239.7947627262738
 21
2015
  0
LINE
  8
_0-0_LAY
  6
CONTINUOUS
 62
    2
 10
1236.7947627262738
 20
2044
 11
1184.2947627262738
 21
2044
  0
ARC
  8
_0-0_LAY
  6
CONTINUOUS
 62
    2
 10
1236.7947627262738
 20
2041
 40
3.0000000000000004
 50
0
 51
90
  0
ARC
  8
_0-0_LAY
  6
CONTINUOUS
 62
    2
 10
1164.2947627262747
 20
2041
 40
3.0000000000000004
 50
0
 51
90
  0
LINE
  8
_0-0_LAY
  6
CONTINUOUS
 62
    2
 10
1167.2947627262747
 20
2015
 11
1167.2947627262747
 21
2041
  0
ARC
  8
_0-0_LAY
  6
CONTINUOUS
 62
    2
 10
1164.2947627262747
 20
2015
 40
3.0000000000000004
 50
270
 51
0
  0
ARC
  8
_0-0_LAY
  6
CONTINUOUS
 62
    2
 10
1091.2947627262738
 20
2041
 40
3.0000000000000004
 50
0
 51
90
  0
LINE
  8
_0-0_LAY
  6
CONTINUOUS
 62
    2
 10
1094.2947627262738
 20
2015
 11
1094.2947627262738
 21
2041
  0
ARC
  8
_0-0_LAY
  6
CONTINUOUS
 62
    2
 10
1091.2947627262738
 20
2015
 40
3.0000000000000004
 50
270
 51
0
  0
LINE
  8
_0-0_LAY
  6
CONTINUOUS
 62
    2
 10
1077.2947627262747
 20
2012
 11
1091.2947627262738
 21
2012
  0
ARC
  8
_0-0_LAY
  6
CONTINUOUS
 62
    2
 10
1077.2947627262747
 20
2009
 40
3.0000000000000004
 50
90
 51
180
  0
LINE
  8
_0-0_LAY
  6
CONTINUOUS
 62
    2
 10
1077.2947627262747
 20
2044
 11
1091.2947627262738
 21
2044
  0
ARC
  8
_0-0_LAY
  6
CONTINUOUS
 62
    2
 10
1077.2947627262747
 20
2047
 40
3.0000000000000004
 50
180
 51
270
  0
ARC
  8
_0-0_LAY
  6
CONTINUOUS
 62
    2
 10
1256.7947627262738
 20
2041
 40
3.0000000000000004
 50
90
 51
180
  0
LINE
  8
_0-0_LAY
  6
CONTINUOUS
 62
    2
 10
1253.7947627262738
 20
2015
 11
1253.7947627262738
 21
2041
  0
ARC
  8
_0-0_LAY
  6
CONTINUOUS
 62
    2
 10
1256.7947627262738
 20
2015
 40
3.0000000000000004
 50
180
 51
270
  0
LINE
  8
_0-0_LAY
  6
CONTINUOUS
 62
    2
 10
1309.2947627262738
 20
2012
 11
1256.7947627262738
 21
2012
  0
ARC
  8
_0-0_LAY
  6
CONTINUOUS
 62
    2
 10
1309.2947627262738
 20
2015
 40
3.0000000000000004
 50
270
 51
0
  0
LINE
  8
_0-0_LAY
  6
CONTINUOUS
 62
    2
 10
1312.2947627262738
 20
2041
 11
1312.2947627262738
 21
2015
  0
LINE
  8
_0-0_LAY
  6
CONTINUOUS
 62
    2
 10
1309.2947627262738
 20
2044
 11
1256.7947627262738
 21
2044
  0
ARC
  8
_0-0_LAY
  6
CONTINUOUS
 62
    2
 10
1309.2947627262738
 20
2041
 40
3.0000000000000004
 50
0
 51
90
  0
ARC
  8
_0-0_LAY
  6
CONTINUOUS
 62
    2
 10
1329.2947627262747
 20
2041
 40
3.0000000000000004
 50
90
 51
180
  0
LINE
  8
_0-0_LAY
  6
CONTINUOUS
 62
    2
 10
1326.2947627262738
 20
2015
 11
1326.2947627262738
 21
2041
  0
ARC
  8
_0-0_LAY
  6
CONTINUOUS
 62
    2
 10
1329.2947627262747
 20
2015
 40
3.0000000000000004
 50
180
 51
270
  0
LINE
  8
_0-0_LAY
  6
CONTINUOUS
 62
    2
 10
1381.7947627262738
 20
2012
 11
1329.2947627262747
 21
2012
  0
ARC
  8
_0-0_LAY
  6
CONTINUOUS
 62
    2
 10
1381.7947627262738
 20
2015
 40
3.0000000000000004
 50
270
 51
0
  0
LINE
  8
_0-0_LAY
  6
CONTINUOUS
 62
    2
 10
1384.7947627262738
 20
2041
 11
1384.7947627262738
 21
2015
  0
LINE
  8
_0-0_LAY
  6
CONTINUOUS
 62
    2
 10
1381.7947627262738
 20
2044
 11
1329.2947627262747
 21
2044
  0
ARC
  8
_0-0_LAY
  6
CONTINUOUS
 62
    2
 10
1381.7947627262738
 20
2041
 40
3.0000000000000004
 50
0
 51
90
  0
ARC
  8
_0-0_LAY
  6
CONTINUOUS
 62
    2
 10
1401.7947627262738
 20
2041
 40
3.0000000000000004
 50
90
 51
180
  0
LINE
  8
_0-0_LAY
  6
CONTINUOUS
 62
    2
 10
1398.7947627262747
 20
2015
 11
1398.7947627262747
 21
2041
  0
ARC
  8
_0-0_LAY
  6
CONTINUOUS
 62
    2
 10
1401.7947627262738
 20
2015
 40
3.0000000000000004
 50
180
 51
270
  0
LINE
  8
_0-0_LAY
  6
CONTINUOUS
 62
    2
 10
1454.2947627262747
 20
2012
 11
1401.7947627262738
 21
2012
  0
ARC
  8
_0-0_LAY
  6
CONTINUOUS
 62
    2
 10
1454.2947627262747
 20
2015
 40
3.0000000000000004
 50
270
 51
0
  0
LINE
  8
_0-0_LAY
  6
CONTINUOUS
 62
    2
 10
1457.2947627262738
 20
2041
 11
1457.2947627262738
 21
2015
  0
LINE
  8
_0-0_LAY
  6
CONTINUOUS
 62
    2
 10
1454.2947627262747
 20
2044
 11
1401.7947627262738
 21
2044
  0
ARC
  8
_0-0_LAY
  6
CONTINUOUS
 62
    2
 10
1454.2947627262747
 20
2041
 40
3.0000000000000004
 50
0
 51
90
  0
ARC
  8
_0-0_LAY
  6
CONTINUOUS
 62
    2
 10
1474.2947627262747
 20
2041
 40
3.0000000000000004
 50
90
 51
180
  0
LINE
  8
_0-0_LAY
  6
CONTINUOUS
 62
    2
 10
1471.2947627262738
 20
2015
 11
1471.2947627262738
 21
2041
  0
ARC
  8
_0-0_LAY
  6
CONTINUOUS
 62
    2
 10
1474.2947627262747
 20
2015
 40
3.0000000000000004
 50
180
 51
270
  0
LINE
  8
_0-0_LAY
  6
CONTINUOUS
 62
    2
 10
1526.7947627262738
 20
2012
 11
1474.2947627262747
 21
2012
  0
ARC
  8
_0-0_LAY
  6
CONTINUOUS
 62
    2
 10
1526.7947627262738
 20
2015
 40
3.0000000000000004
 50
270
 51
0
  0
LINE
  8
_0-0_LAY
  6
CONTINUOUS
 62
    2
 10
1529.7947627262738
 20
2041
 11
1529.7947627262738
 21
2015
  0
LINE
  8
_0-0_LAY
  6
CONTINUOUS
 62
    2
 10
1526.7947627262738
 20
2044
 11
1474.2947627262747
 21
2044
  0
ARC
  8
_0-0_LAY
  6
CONTINUOUS
 62
    2
 10
1526.7947627262738
 20
2041
 40
3.0000000000000004
 50
0
 51
90
  0
ARC
  8
_0-0_LAY
  6
CONTINUOUS
 62
    2
 10
1546.7947627262738
 20
2041
 40
3.0000000000000004
 50
90
 51
180
  0
LINE
  8
_0-0_LAY
  6
CONTINUOUS
 62
    2
 10
1543.7947627262747
 20
2015
 11
1543.7947627262747
 21
2041
  0
ARC
  8
_0-0_LAY
  6
CONTINUOUS
 62
    2
 10
1546.7947627262738
 20
2015
 40
3.0000000000000004
 50
180
 51
270
  0
LINE
  8
_0-0_LAY
  6
CONTINUOUS
 62
    2
 10
1599.2947627262747
 20
2012
 11
1546.7947627262738
 21
2012
  0
ARC
  8
_0-0_LAY
  6
CONTINUOUS
 62
    2
 10
1599.2947627262747
 20
2015
 40
3.0000000000000004
 50
270
 51
0
  0
LINE
  8
_0-0_LAY
  6
CONTINUOUS
 62
    2
 10
1602.2947627262747
 20
2041
 11
1602.2947627262747
 21
2015
  0
LINE
  8
_0-0_LAY
  6
CONTINUOUS
 62
    2
 10
1599.2947627262747
 20
2044
 11
1546.7947627262738
 21
2044
  0
ARC
  8
_0-0_LAY
  6
CONTINUOUS
 62
    2
 10
1599.2947627262747
 20
2041
 40
3.0000000000000004
 50
0
 51
90
  0
ARC
  8
_0-0_LAY
  6
CONTINUOUS
 62
    2
 10
1619.2947627262747
 20
2041
 40
3.0000000000000004
 50
90
 51
180
  0
LINE
  8
_0-0_LAY
  6
CONTINUOUS
 62
    2
 10
1616.2947627262738
 20
2015
 11
1616.2947627262738
 21
2041
  0
ARC
  8
_0-0_LAY
  6
CONTINUOUS
 62
    2
 10
1619.2947627262747
 20
2015
 40
3.0000000000000004
 50
180
 51
270
  0
LINE
  8
_0-0_LAY
  6
CONTINUOUS
 62
    2
 10
1671.7947627262738
 20
2012
 11
1619.2947627262747
 21
2012
  0
ARC
  8
_0-0_LAY
  6
CONTINUOUS
 62
    2
 10
1671.7947627262738
 20
2015
 40
3.0000000000000004
 50
270
 51
0
  0
LINE
  8
_0-0_LAY
  6
CONTINUOUS
 62
    2
 10
1674.7947627262738
 20
2041
 11
1674.7947627262738
 21
2015
  0
LINE
  8
_0-0_LAY
  6
CONTINUOUS
 62
    2
 10
1671.7947627262738
 20
2044
 11
1619.2947627262747
 21
2044
  0
ARC
  8
_0-0_LAY
  6
CONTINUOUS
 62
    2
 10
1671.7947627262738
 20
2041
 40
3.0000000000000004
 50
0
 51
90
  0
ARC
  8
_0-0_LAY
  6
CONTINUOUS
 62
    2
 10
1691.7947627262747
 20
2041
 40
3.0000000000000004
 50
90
 51
180
  0
LINE
  8
_0-0_LAY
  6
CONTINUOUS
 62
    2
 10
1688.7947627262747
 20
2015
 11
1688.7947627262747
 21
2041
  0
ARC
  8
_0-0_LAY
  6
CONTINUOUS
 62
    2
 10
1691.7947627262747
 20
2015
 40
3.0000000000000004
 50
180
 51
270
  0
LINE
  8
_0-0_LAY
  6
CONTINUOUS
 62
    2
 10
1744.2947627262747
 20
2012
 11
1691.7947627262747
 21
2012
  0
ARC
  8
_0-0_LAY
  6
CONTINUOUS
 62
    2
 10
1744.2947627262747
 20
2015
 40
3.0000000000000004
 50
270
 51
0
  0
LINE
  8
_0-0_LAY
  6
CONTINUOUS
 62
    2
 10
1747.2947627262747
 20
2041
 11
1747.2947627262747
 21
2015
  0
LINE
  8
_0-0_LAY
  6
CONTINUOUS
 62
    2
 10
1744.2947627262747
 20
2044
 11
1691.7947627262747
 21
2044
  0
ARC
  8
_0-0_LAY
  6
CONTINUOUS
 62
    2
 10
1744.2947627262747
 20
2041
 40
3.0000000000000004
 50
0
 51
90
  0
ARC
  8
_0-0_LAY
  6
CONTINUOUS
 62
    2
 10
1764.2947627262747
 20
2041
 40
3.0000000000000004
 50
90
 51
180
  0
LINE
  8
_0-0_LAY
  6
CONTINUOUS
 62
    2
 10
1761.2947627262738
 20
2015
 11
1761.2947627262738
 21
2041
  0
ARC
  8
_0-0_LAY
  6
CONTINUOUS
 62
    2
 10
1764.2947627262747
 20
2015
 40
3.0000000000000004
 50
180
 51
270
  0
LINE
  8
_0-0_LAY
  6
CONTINUOUS
 62
    2
 10
1816.7947627262747
 20
2012
 11
1764.2947627262747
 21
2012
  0
ARC
  8
_0-0_LAY
  6
CONTINUOUS
 62
    2
 10
1816.7947627262747
 20
2015
 40
3.0000000000000004
 50
270
 51
0
  0
LINE
  8
_0-0_LAY
  6
CONTINUOUS
 62
    2
 10
1819.7947627262738
 20
2041
 11
1819.7947627262738
 21
2015
  0
LINE
  8
_0-0_LAY
  6
CONTINUOUS
 62
    2
 10
1816.7947627262747
 20
2044
 11
1764.2947627262747
 21
2044
  0
ARC
  8
_0-0_LAY
  6
CONTINUOUS
 62
    2
 10
1816.7947627262747
 20
2041
 40
3.0000000000000004
 50
0
 51
90
  0
ARC
  8
_0-0_LAY
  6
CONTINUOUS
 62
    2
 10
1836.7947627262738
 20
2041
 40
3.0000000000000004
 50
90
 51
180
  0
LINE
  8
_0-0_LAY
  6
CONTINUOUS
 62
    2
 10
1833.7947627262738
 20
2015
 11
1833.7947627262738
 21
2041
  0
ARC
  8
_0-0_LAY
  6
CONTINUOUS
 62
    2
 10
1836.7947627262738
 20
2015
 40
3.0000000000000004
 50
180
 51
270
  0
LINE
  8
_0-0_LAY
  6
CONTINUOUS
 62
    2
 10
1889.2947627262747
 20
2012
 11
1836.7947627262738
 21
2012
  0
ARC
  8
_0-0_LAY
  6
CONTINUOUS
 62
    2
 10
1889.2947627262747
 20
2015
 40
3.0000000000000004
 50
270
 51
0
  0
LINE
  8
_0-0_LAY
  6
CONTINUOUS
 62
    2
 10
1892.2947627262747
 20
2041
 11
1892.2947627262747
 21
2015
  0
LINE
  8
_0-0_LAY
  6
CONTINUOUS
 62
    2
 10
1889.2947627262747
 20
2044
 11
1836.7947627262738
 21
2044
  0
ARC
  8
_0-0_LAY
  6
CONTINUOUS
 62
    2
 10
1889.2947627262747
 20
2041
 40
3.0000000000000004
 50
0
 51
90
  0
ARC
  8
_0-0_LAY
  6
CONTINUOUS
 62
    2
 10
1909.2947627262738
 20
2041
 40
3.0000000000000004
 50
90
 51
180
  0
LINE
  8
_0-0_LAY
  6
CONTINUOUS
 62
    2
 10
1906.2947627262747
 20
2015
 11
1906.2947627262747
 21
2041
  0
ARC
  8
_0-0_LAY
  6
CONTINUOUS
 62
    2
 10
1909.2947627262738
 20
2015
 40
3.0000000000000004
 50
180
 51
270
  0
LINE
  8
_0-0_LAY
  6
CONTINUOUS
 62
    2
 10
1961.7947627262738
 20
2012
 11
1909.2947627262738
 21
2012
  0
ARC
  8
_0-0_LAY
  6
CONTINUOUS
 62
    2
 10
1961.7947627262738
 20
2015
 40
3.0000000000000004
 50
270
 51
0
  0
LINE
  8
_0-0_LAY
  6
CONTINUOUS
 62
    2
 10
1964.7947627262747
 20
2041
 11
1964.7947627262747
 21
2015
  0
LINE
  8
_0-0_LAY
  6
CONTINUOUS
 62
    2
 10
1961.7947627262738
 20
2044
 11
1909.2947627262738
 21
2044
  0
ARC
  8
_0-0_LAY
  6
CONTINUOUS
 62
    2
 10
1961.7947627262738
 20
2041
 40
3.0000000000000004
 50
0
 51
90
  0
ARC
  8
_0-0_LAY
  6
CONTINUOUS
 62
    2
 10
1981.7947627262738
 20
2041
 40
3.0000000000000004
 50
90
 51
180
  0
LINE
  8
_0-0_LAY
  6
CONTINUOUS
 62
    2
 10
1978.7947627262738
 20
2015
 11
1978.7947627262738
 21
2041
  0
ARC
  8
_0-0_LAY
  6
CONTINUOUS
 62
    2
 10
1981.7947627262738
 20
2015
 40
3.0000000000000004
 50
180
 51
270
  0
LINE
  8
_0-0_LAY
  6
CONTINUOUS
 62
    2
 10
2034.2947627262747
 20
2012
 11
1981.7947627262738
 21
2012
  0
ARC
  8
_0-0_LAY
  6
CONTINUOUS
 62
    2
 10
2034.2947627262747
 20
2015
 40
3.0000000000000004
 50
270
 51
0
  0
LINE
  8
_0-0_LAY
  6
CONTINUOUS
 62
    2
 10
2037.2947627262738
 20
2041
 11
2037.2947627262738
 21
2015
  0
LINE
  8
_0-0_LAY
  6
CONTINUOUS
 62
    2
 10
2034.2947627262747
 20
2044
 11
1981.7947627262738
 21
2044
  0
ARC
  8
_0-0_LAY
  6
CONTINUOUS
 62
    2
 10
2034.2947627262747
 20
2041
 40
3.0000000000000004
 50
0
 51
90
  0
ARC
  8
_0-0_LAY
  6
CONTINUOUS
 62
    2
 10
2054.2947627262747
 20
2041
 40
3.0000000000000004
 50
90
 51
180
  0
LINE
  8
_0-0_LAY
  6
CONTINUOUS
 62
    2
 10
2051.2947627262747
 20
2015
 11
2051.2947627262747
 21
2041
  0
ARC
  8
_0-0_LAY
  6
CONTINUOUS
 62
    2
 10
2054.2947627262747
 20
2015
 40
3.0000000000000004
 50
180
 51
270
  0
LINE
  8
_0-0_LAY
  6
CONTINUOUS
 62
    2
 10
2106.7947627262738
 20
2012
 11
2054.2947627262747
 21
2012
  0
ARC
  8
_0-0_LAY
  6
CONTINUOUS
 62
    2
 10
2106.7947627262738
 20
2015
 40
3.0000000000000004
 50
270
 51
0
  0
LINE
  8
_0-0_LAY
  6
CONTINUOUS
 62
    2
 10
2109.7947627262747
 20
2041
 11
2109.7947627262747
 21
2015
  0
LINE
  8
_0-0_LAY
  6
CONTINUOUS
 62
    2
 10
2106.7947627262738
 20
2044
 11
2054.2947627262747
 21
2044
  0
ARC
  8
_0-0_LAY
  6
CONTINUOUS
 62
    2
 10
2106.7947627262738
 20
2041
 40
3.0000000000000004
 50
0
 51
90
  0
ARC
  8
_0-0_LAY
  6
CONTINUOUS
 62
    2
 10
2272.2947627262747
 20
2044
 40
3.0000000000000004
 50
180
 51
270
  0
LINE
  8
_0-0_LAY
  6
CONTINUOUS
 62
    2
 10
2291.2947627262738
 20
2041
 11
2272.2947627262747
 21
2041
  0
ARC
  8
_0-0_LAY
  6
CONTINUOUS
 62
    2
 10
2291.2947627262738
 20
2038
 40
3.0000000000000004
 50
0
 51
90
  0
LINE
  8
_0-0_LAY
  6
CONTINUOUS
 62
    2
 10
2294.2947627262738
 20
2018
 11
2294.2947627262738
 21
2038
  0
ARC
  8
_0-0_LAY
  6
CONTINUOUS
 62
    2
 10
2291.2947627262738
 20
2018
 40
3.0000000000000004
 50
270
 51
0
  0
LINE
  8
_0-0_LAY
  6
CONTINUOUS
 62
    2
 10
2272.2947627262747
 20
2015
 11
2291.2947627262738
 21
2015
  0
ARC
  8
_0-0_LAY
  6
CONTINUOUS
 62
    2
 10
2272.2947627262747
 20
2012
 40
3.0000000000000004
 50
90
 51
180
  0
LINE
  8
_0-0_LAY
  6
CONTINUOUS
 62
    2
 10
2269.2947627262747
 20
2056
 11
2269.2947627262747
 21
2044
  0
LINE
  8
_0-0_LAY
  6
CONTINUOUS
 62
    2
 10
2267.2947627262738
 20
2058
 11
2269.2947627262747
 21
2056
  0
LINE
  8
_0-0_LAY
  6
CONTINUOUS
 62
    2
 10
2269.2947627262747
 20
2000
 11
2269.2947627262747
 21
2012
  0
LINE
  8
_0-0_LAY
  6
CONTINUOUS
 62
    2
 10
2269.2947627262747
 20
2000
 11
2267.2947627262738
 21
1998
  0
LINE
  8
_0-0_LAY
  6
CONTINUOUS
 62
    2
 10
1076.2947627262738
 20
2058
 11
2267.2947627262738
 21
2058
  0
LINE
  8
_0-0_LAY
  6
CONTINUOUS
 62
    2
 10
1074.2947627262747
 20
2056
 11
1074.2947627262747
 21
2047
  0
LINE
  8
_0-0_LAY
  6
CONTINUOUS
 62
    2
 10
1076.2947627262738
 20
2058
 11
1074.2947627262747
 21
2056
  0
LINE
  8
_0-0_LAY
  6
CONTINUOUS
 62
    2
 10
1074.2947627262747
 20
2000
 11
1074.2947627262747
 21
2009
  0
LINE
  8
_0-0_LAY
  6
CONTINUOUS
 62
    2
 10
1076.2947627262738
 20
1998
 11
2267.2947627262738
 21
1998
  0
LINE
  8
_0-0_LAY
  6
CONTINUOUS
 62
    2
 10
1074.2947627262747
 20
2000
 11
1076.2947627262738
 21
1998
  0
ARC
  8
_0-0_LAY
  6
CONTINUOUS
 62
    2
 10
1111.7947627262738
 20
2015
 40
3.0000000000000004
 50
180
 51
270
  0
LINE
  8
_0-0_LAY
  6
CONTINUOUS
 62
    2
 10
1108.7947627262738
 20
2041
 11
1108.7947627262738
 21
2015
  0
ARC
  8
_0-0_LAY
  6
CONTINUOUS
 62
    2
 10
1111.7947627262738
 20
2041
 40
3.0000000000000004
 50
90
 51
180
  0
LINE
  8
_0-0_LAY
  6
CONTINUOUS
 62
    2
 10
1111.7947627262738
 20
2044
 11
1164.2947627262747
 21
2044
  0
LINE
  8
_0-0_LAY
  6
CONTINUOUS
 62
    2
 10
1111.7947627262738
 20
2012
 11
1164.2947627262747
 21
2012
  0
ARC
  8
_0-0_LAY
  6
CONTINUOUS
 62
    2
 10
2251.7947627262747
 20
2015
 40
3.0000000000000004
 50
270
 51
0
  0
LINE
  8
_0-0_LAY
  6
CONTINUOUS
 62
    2
 10
2254.7947627262738
 20
2041
 11
2254.7947627262738
 21
2015
  0
ARC
  8
_0-0_LAY
  6
CONTINUOUS
 62
    2
 10
2251.7947627262747
 20
2041
 40
3.0000000000000004
 50
0
 51
90
  0
LINE
  8
_0-0_LAY
  6
CONTINUOUS
 62
    2
 10
2251.7947627262747
 20
2044
 11
2199.2947627262738
 21
2044
  0
LINE
  8
_0-0_LAY
  6
CONTINUOUS
 62
    2
 10
2251.7947627262747
 20
2012
 11
2199.2947627262738
 21
2012
  0
ARC
  8
_0-0_LAY
  6
CONTINUOUS
 62
    2
 10
1077.2947627262747
 20
1637.5
 40
3.0000000000000004
 50
180
 51
270
  0
LINE
  8
_0-0_LAY
  6
CONTINUOUS
 62
    2
 10
1091.2947627262738
 20
1634.5
 11
1077.2947627262747
 21
1634.5
  0
ARC
  8
_0-0_LAY
  6
CONTINUOUS
 62
    2
 10
1091.2947627262738
 20
1631.5
 40
3.0000000000000004
 50
0
 51
90
  0
LINE
  8
_0-0_LAY
  6
CONTINUOUS
 62
    2
 10
1094.2947627262738
 20
1592.5
 11
1094.2947627262738
 21
1631.5
  0
ARC
  8
_0-0_LAY
  6
CONTINUOUS
 62
    2
 10
1091.2947627262738
 20
1592.5
 40
3.0000000000000004
 50
270
 51
0
  0
LINE
  8
_0-0_LAY
  6
CONTINUOUS
 62
    2
 10
1077.2947627262747
 20
1589.5
 11
1091.2947627262738
 21
1589.5
  0
ARC
  8
_0-0_LAY
  6
CONTINUOUS
 62
    2
 10
1077.2947627262747
 20
1586.5
 40
3.0000000000000004
 50
90
 51
180
  0
ARC
  8
_0-0_LAY
  6
CONTINUOUS
 62
    2
 10
1112.2947627262738
 20
1592.5
 40
3.0000000000000004
 50
180
 51
270
  0
LINE
  8
_0-0_LAY
  6
CONTINUOUS
 62
    2
 10
1161.2947627262738
 20
1589.5
 11
1112.2947627262738
 21
1589.5
  0
ARC
  8
_0-0_LAY
  6
CONTINUOUS
 62
    2
 10
1161.2947627262738
 20
1592.5
 40
3.0000000000000004
 50
270
 51
0
  0
LINE
  8
_0-0_LAY
  6
CONTINUOUS
 62
    2
 10
1164.2947627262747
 20
1631.5
 11
1164.2947627262747
 21
1592.5
  0
ARC
  8
_0-0_LAY
  6
CONTINUOUS
 62
    2
 10
1161.2947627262738
 20
1631.5
 40
3.0000000000000004
 50
0
 51
90
  0
LINE
  8
_0-0_LAY
  6
CONTINUOUS
 62
    2
 10
1112.2947627262738
 20
1634.5
 11
1161.2947627262738
 21
1634.5
  0
LINE
  8
_0-0_LAY
  6
CONTINUOUS
 62
    2
 10
1109.2947627262738
 20
1631.5
 11
1109.2947627262738
 21
1592.5
  0
ARC
  8
_0-0_LAY
  6
CONTINUOUS
 62
    2
 10
1112.2947627262738
 20
1631.5
 40
3.0000000000000004
 50
90
 51
180
  0
ARC
  8
_0-0_LAY
  6
CONTINUOUS
 62
    2
 10
1672.2947627262747
 20
1634.5
 40
3.0000000000000004
 50
180
 51
270
  0
LINE
  8
_0-0_LAY
  6
CONTINUOUS
 62
    2
 10
1686.2947627262747
 20
1631.5
 11
1672.2947627262747
 21
1631.5
  0
ARC
  8
_0-0_LAY
  6
CONTINUOUS
 62
    2
 10
1686.2947627262747
 20
1628.5
 40
3.0000000000000004
 50
0
 51
90
  0
LINE
  8
_0-0_LAY
  6
CONTINUOUS
 62
    2
 10
1689.2947627262738
 20
1595.5
 11
1689.2947627262738
 21
1628.5
  0
ARC
  8
_0-0_LAY
  6
CONTINUOUS
 62
    2
 10
1686.2947627262747
 20
1595.5
 40
3.0000000000000004
 50
270
 51
0
  0
LINE
  8
_0-0_LAY
  6
CONTINUOUS
 62
    2
 10
1672.2947627262747
 20
1592.5
 11
1686.2947627262747
 21
1592.5
  0
ARC
  8
_0-0_LAY
  6
CONTINUOUS
 62
    2
 10
1672.2947627262747
 20
1589.5
 40
3.0000000000000004
 50
90
 51
180
  0
LINE
  8
_0-0_LAY
  6
CONTINUOUS
 62
    2
 10
1669.2947627262738
 20
1647.5
 11
1669.2947627262738
 21
1634.5
  0
LINE
  8
_0-0_LAY
  6
CONTINUOUS
 62
    2
 10
1667.2947627262747
 20
1649.5
 11
1669.2947627262738
 21
1647.5
  0
LINE
  8
_0-0_LAY
  6
CONTINUOUS
 62
    2
 10
1669.2947627262738
 20
1576.5
 11
1669.2947627262738
 21
1589.5
  0
LINE
  8
_0-0_LAY
  6
CONTINUOUS
 62
    2
 10
1669.2947627262738
 20
1576.5
 11
1667.2947627262747
 21
1574.5
  0
LINE
  8
_0-0_LAY
  6
CONTINUOUS
 62
    2
 10
1076.2947627262738
 20
1649.5
 11
1667.2947627262747
 21
1649.5
  0
LINE
  8
_0-0_LAY
  6
CONTINUOUS
 62
    2
 10
1074.2947627262747
 20
1647.5
 11
1074.2947627262747
 21
1637.5
  0
LINE
  8
_0-0_LAY
  6
CONTINUOUS
 62
    2
 10
1076.2947627262738
 20
1649.5
 11
1074.2947627262747
 21
1647.5
  0
LINE
  8
_0-0_LAY
  6
CONTINUOUS
 62
    2
 10
1074.2947627262747
 20
1576.5
 11
1074.2947627262747
 21
1586.5
  0
LINE
  8
_0-0_LAY
  6
CONTINUOUS
 62
    2
 10
1076.2947627262738
 20
1574.5
 11
1667.2947627262747
 21
1574.5
  0
LINE
  8
_0-0_LAY
  6
CONTINUOUS
 62
    2
 10
1074.2947627262747
 20
1576.5
 11
1076.2947627262738
 21
1574.5
  0
ARC
  8
_0-0_LAY
  6
CONTINUOUS
 62
    2
 10
1182.2947627262738
 20
1592.5
 40
3.0000000000000004
 50
180
 51
270
  0
LINE
  8
_0-0_LAY
  6
CONTINUOUS
 62
    2
 10
1231.2947627262747
 20
1589.5
 11
1182.2947627262738
 21
1589.5
  0
ARC
  8
_0-0_LAY
  6
CONTINUOUS
 62
    2
 10
1231.2947627262747
 20
1592.5
 40
3.0000000000000004
 50
270
 51
0
  0
LINE
  8
_0-0_LAY
  6
CONTINUOUS
 62
    2
 10
1234.2947627262738
 20
1631.5
 11
1234.2947627262738
 21
1592.5
  0
ARC
  8
_0-0_LAY
  6
CONTINUOUS
 62
    2
 10
1231.2947627262747
 20
1631.5
 40
3.0000000000000004
 50
0
 51
90
  0
LINE
  8
_0-0_LAY
  6
CONTINUOUS
 62
    2
 10
1182.2947627262738
 20
1634.5
 11
1231.2947627262747
 21
1634.5
  0
LINE
  8
_0-0_LAY
  6
CONTINUOUS
 62
    2
 10
1179.2947627262747
 20
1631.5
 11
1179.2947627262747
 21
1592.5
  0
ARC
  8
_0-0_LAY
  6
CONTINUOUS
 62
    2
 10
1182.2947627262738
 20
1631.5
 40
3.0000000000000004
 50
90
 51
180
  0
ARC
  8
_0-0_LAY
  6
CONTINUOUS
 62
    2
 10
1252.2947627262747
 20
1592.5
 40
3.0000000000000004
 50
180
 51
270
  0
LINE
  8
_0-0_LAY
  6
CONTINUOUS
 62
    2
 10
1301.2947627262747
 20
1589.5
 11
1252.2947627262747
 21
1589.5
  0
ARC
  8
_0-0_LAY
  6
CONTINUOUS
 62
    2
 10
1301.2947627262747
 20
1592.5
 40
3.0000000000000004
 50
270
 51
0
  0
LINE
  8
_0-0_LAY
  6
CONTINUOUS
 62
    2
 10
1304.2947627262747
 20
1631.5
 11
1304.2947627262747
 21
1592.5
  0
ARC
  8
_0-0_LAY
  6
CONTINUOUS
 62
    2
 10
1301.2947627262747
 20
1631.5
 40
3.0000000000000004
 50
0
 51
90
  0
LINE
  8
_0-0_LAY
  6
CONTINUOUS
 62
    2
 10
1252.2947627262747
 20
1634.5
 11
1301.2947627262747
 21
1634.5
  0
LINE
  8
_0-0_LAY
  6
CONTINUOUS
 62
    2
 10
1249.2947627262738
 20
1631.5
 11
1249.2947627262738
 21
1592.5
  0
ARC
  8
_0-0_LAY
  6
CONTINUOUS
 62
    2
 10
1252.2947627262747
 20
1631.5
 40
3.0000000000000004
 50
90
 51
180
  0
ARC
  8
_0-0_LAY
  6
CONTINUOUS
 62
    2
 10
1322.2947627262738
 20
1592.5
 40
3.0000000000000004
 50
180
 51
270
  0
LINE
  8
_0-0_LAY
  6
CONTINUOUS
 62
    2
 10
1371.2947627262738
 20
1589.5
 11
1322.2947627262738
 21
1589.5
  0
ARC
  8
_0-0_LAY
  6
CONTINUOUS
 62
    2
 10
1371.2947627262738
 20
1592.5
 40
3.0000000000000004
 50
270
 51
0
  0
LINE
  8
_0-0_LAY
  6
CONTINUOUS
 62
    2
 10
1374.2947627262738
 20
1631.5
 11
1374.2947627262738
 21
1592.5
  0
ARC
  8
_0-0_LAY
  6
CONTINUOUS
 62
    2
 10
1371.2947627262738
 20
1631.5
 40
3.0000000000000004
 50
0
 51
90
  0
LINE
  8
_0-0_LAY
  6
CONTINUOUS
 62
    2
 10
1322.2947627262738
 20
1634.5
 11
1371.2947627262738
 21
1634.5
  0
LINE
  8
_0-0_LAY
  6
CONTINUOUS
 62
    2
 10
1319.2947627262738
 20
1631.5
 11
1319.2947627262738
 21
1592.5
  0
ARC
  8
_0-0_LAY
  6
CONTINUOUS
 62
    2
 10
1322.2947627262738
 20
1631.5
 40
3.0000000000000004
 50
90
 51
180
  0
ARC
  8
_0-0_LAY
  6
CONTINUOUS
 62
    2
 10
1392.2947627262747
 20
1592.5
 40
3.0000000000000004
 50
180
 51
270
  0
LINE
  8
_0-0_LAY
  6
CONTINUOUS
 62
    2
 10
1441.2947627262738
 20
1589.5
 11
1392.2947627262747
 21
1589.5
  0
ARC
  8
_0-0_LAY
  6
CONTINUOUS
 62
    2
 10
1441.2947627262738
 20
1592.5
 40
3.0000000000000004
 50
270
 51
0
  0
LINE
  8
_0-0_LAY
  6
CONTINUOUS
 62
    2
 10
1444.2947627262738
 20
1631.5
 11
1444.2947627262738
 21
1592.5
  0
ARC
  8
_0-0_LAY
  6
CONTINUOUS
 62
    2
 10
1441.2947627262738
 20
1631.5
 40
3.0000000000000004
 50
0
 51
90
  0
LINE
  8
_0-0_LAY
  6
CONTINUOUS
 62
    2
 10
1392.2947627262747
 20
1634.5
 11
1441.2947627262738
 21
1634.5
  0
LINE
  8
_0-0_LAY
  6
CONTINUOUS
 62
    2
 10
1389.2947627262747
 20
1631.5
 11
1389.2947627262747
 21
1592.5
  0
ARC
  8
_0-0_LAY
  6
CONTINUOUS
 62
    2
 10
1392.2947627262747
 20
1631.5
 40
3.0000000000000004
 50
90
 51
180
  0
ARC
  8
_0-0_LAY
  6
CONTINUOUS
 62
    2
 10
1462.2947627262747
 20
1592.5
 40
3.0000000000000004
 50
180
 51
270
  0
LINE
  8
_0-0_LAY
  6
CONTINUOUS
 62
    2
 10
1511.2947627262738
 20
1589.5
 11
1462.2947627262747
 21
1589.5
  0
ARC
  8
_0-0_LAY
  6
CONTINUOUS
 62
    2
 10
1511.2947627262738
 20
1592.5
 40
3.0000000000000004
 50
270
 51
0
  0
LINE
  8
_0-0_LAY
  6
CONTINUOUS
 62
    2
 10
1514.2947627262747
 20
1631.5
 11
1514.2947627262747
 21
1592.5
  0
ARC
  8
_0-0_LAY
  6
CONTINUOUS
 62
    2
 10
1511.2947627262738
 20
1631.5
 40
3.0000000000000004
 50
0
 51
90
  0
LINE
  8
_0-0_LAY
  6
CONTINUOUS
 62
    2
 10
1462.2947627262747
 20
1634.5
 11
1511.2947627262738
 21
1634.5
  0
LINE
  8
_0-0_LAY
  6
CONTINUOUS
 62
    2
 10
1459.2947627262738
 20
1631.5
 11
1459.2947627262738
 21
1592.5
  0
ARC
  8
_0-0_LAY
  6
CONTINUOUS
 62
    2
 10
1462.2947627262747
 20
1631.5
 40
3.0000000000000004
 50
90
 51
180
  0
ARC
  8
_0-0_LAY
  6
CONTINUOUS
 62
    2
 10
1532.2947627262738
 20
1592.5
 40
3.0000000000000004
 50
180
 51
270
  0
LINE
  8
_0-0_LAY
  6
CONTINUOUS
 62
    2
 10
1581.2947627262747
 20
1589.5
 11
1532.2947627262738
 21
1589.5
  0
ARC
  8
_0-0_LAY
  6
CONTINUOUS
 62
    2
 10
1581.2947627262747
 20
1592.5
 40
3.0000000000000004
 50
270
 51
0
  0
LINE
  8
_0-0_LAY
  6
CONTINUOUS
 62
    2
 10
1584.2947627262738
 20
1631.5
 11
1584.2947627262738
 21
1592.5
  0
ARC
  8
_0-0_LAY
  6
CONTINUOUS
 62
    2
 10
1581.2947627262747
 20
1631.5
 40
3.0000000000000004
 50
0
 51
90
  0
LINE
  8
_0-0_LAY
  6
CONTINUOUS
 62
    2
 10
1532.2947627262738
 20
1634.5
 11
1581.2947627262747
 21
1634.5
  0
LINE
  8
_0-0_LAY
  6
CONTINUOUS
 62
    2
 10
1529.2947627262747
 20
1631.5
 11
1529.2947627262747
 21
1592.5
  0
ARC
  8
_0-0_LAY
  6
CONTINUOUS
 62
    2
 10
1532.2947627262738
 20
1631.5
 40
3.0000000000000004
 50
90
 51
180
  0
ARC
  8
_0-0_LAY
  6
CONTINUOUS
 62
    2
 10
1602.2947627262747
 20
1592.5
 40
3.0000000000000004
 50
180
 51
270
  0
LINE
  8
_0-0_LAY
  6
CONTINUOUS
 62
    2
 10
1651.2947627262747
 20
1589.5
 11
1602.2947627262747
 21
1589.5
  0
ARC
  8
_0-0_LAY
  6
CONTINUOUS
 62
    2
 10
1651.2947627262747
 20
1592.5
 40
3.0000000000000004
 50
270
 51
0
  0
LINE
  8
_0-0_LAY
  6
CONTINUOUS
 62
    2
 10
1654.2947627262747
 20
1631.5
 11
1654.2947627262747
 21
1592.5
  0
ARC
  8
_0-0_LAY
  6
CONTINUOUS
 62
    2
 10
1651.2947627262747
 20
1631.5
 40
3.0000000000000004
 50
0
 51
90
  0
LINE
  8
_0-0_LAY
  6
CONTINUOUS
 62
    2
 10
1602.2947627262747
 20
1634.5
 11
1651.2947627262747
 21
1634.5
  0
LINE
  8
_0-0_LAY
  6
CONTINUOUS
 62
    2
 10
1599.2947627262747
 20
1631.5
 11
1599.2947627262747
 21
1592.5
  0
ARC
  8
_0-0_LAY
  6
CONTINUOUS
 62
    2
 10
1602.2947627262747
 20
1631.5
 40
3.0000000000000004
 50
90
 51
180
  0
LINE
  8
_0-0_LAY
  6
CONTINUOUS
 62
    2
 10
1568.2947027262749
 20
1225.0000649999999
 11
1574.294822726275
 21
1225.0000649999999
  0
LINE
  8
_0-0_LAY
  6
CONTINUOUS
 62
    2
 10
1567.294752726275
 20
1226.000045
 11
1568.2947027262749
 21
1225.0000649999999
  0
LINE
  8
_0-0_LAY
  6
CONTINUOUS
 62
    2
 10
1583.6924927262748
 20
1230.198905
 11
1585.9947227262751
 21
1230.7999849999999
  0
LINE
  8
_0-0_LAY
  6
CONTINUOUS
 62
    2
 10
1585.9947227262751
 20
1226.2330850000001
 11
1585.9947227262751
 21
1226.000045
  0
LINE
  8
_0-0_LAY
  6
CONTINUOUS
 62
    2
 10
1155.2947727262749
 20
1226.000045
 11
1160.9947827262749
 21
1226.000045
  0
LINE
  8
_0-0_LAY
  6
CONTINUOUS
 62
    2
 10
1441.2948327262748
 20
1177.9999849999999
 11
1389.2947627262747
 21
1177.9999849999999
  0
LINE
  8
_0-0_LAY
  6
CONTINUOUS
 62
    2
 10
1466.5948627262751
 20
1230.7999849999999
 11
1445.9947527262748
 21
1230.7999849999999
  0
LINE
  8
_0-0_LAY
  6
CONTINUOUS
 62
    2
 10
1575.2947827262738
 20
1225.9999250000001
 11
1574.294822726275
 21
1225.0000649999999
  0
LINE
  8
_0-0_LAY
  6
CONTINUOUS
 62
    2
 10
1606.5948227262747
 20
1230.7999849999999
 11
1585.9947227262751
 21
1230.7999849999999
  0
LINE
  8
_0-0_LAY
  6
CONTINUOUS
 62
    2
 10
1410.2947827262738
 20
1226.000045
 11
1427.2947827262751
 21
1226.000045
  0
LINE
  8
_0-0_LAY
  6
CONTINUOUS
 62
    2
 10
1373.692542726275
 20
1230.198905
 11
1375.9947727262738
 21
1230.7999849999999
  0
LINE
  8
_0-0_LAY
  6
CONTINUOUS
 62
    2
 10
1410.2947827262738
 20
1226.000045
 11
1409.294822726275
 21
1225.0000649999999
  0
LINE
  8
_0-0_LAY
  6
CONTINUOUS
 62
    2
 10
1427.2947827262751
 20
1226.000045
 11
1428.2946927262738
 21
1225.0000649999999
  0
LINE
  8
_0-0_LAY
  6
CONTINUOUS
 62
    2
 10
1583.4102627262737
 20
1229.313215000001
 11
1585.9947227262751
 21
1226.2330850000001
  0
LINE
  8
_0-0_LAY
  6
CONTINUOUS
 62
    2
 10
1575.2947827262738
 20
1226.000045
 11
1580.9947027262747
 21
1226.000045
  0
LINE
  8
_0-0_LAY
  6
CONTINUOUS
 62
    2
 10
1373.4102127262749
 20
1229.313215000001
 11
1375.9947727262738
 21
1226.2330850000001
  0
LINE
  8
_0-0_LAY
  6
CONTINUOUS
 62
    2
 10
1550.2947427262748
 20
1226.000045
 11
1549.2947927262749
 21
1225.0000649999999
  0
LINE
  8
_0-0_LAY
  6
CONTINUOUS
 62
    2
 10
1164.2947627262747
 20
1210.9999949999999
 11
1164.2947627262747
 21
1180.999995000001
  0
LINE
  8
_0-0_LAY
  6
CONTINUOUS
 62
    2
 10
1093.4101827262748
 20
1229.313215000001
 11
1095.9947727262747
 21
1226.2330850000001
  0
LINE
  8
_0-0_LAY
  6
CONTINUOUS
 62
    2
 10
1612.294752726275
 20
1180.999995000001
 11
1612.294752726275
 21
1210.9999949999999
  0
LINE
  8
_0-0_LAY
  6
CONTINUOUS
 62
    2
 10
1116.5948227262738
 20
1230.7999849999999
 11
1095.9947727262747
 21
1230.7999849999999
  0
LINE
  8
_0-0_LAY
  6
CONTINUOUS
 62
    2
 10
1074.709012726275
 20
1225.0000649999999
 11
1084.2948327262739
 21
1225.0000649999999
  0
LINE
  8
_0-0_LAY
  6
CONTINUOUS
 62
    2
 10
1609.2946927262751
 20
1214.0000049999999
 11
1599.2947627262747
 21
1214.0000049999999
  0
LINE
  8
_0-0_LAY
  6
CONTINUOUS
 62
    2
 10
1596.294752726275
 20
1180.999995000001
 11
1596.294752726275
 21
1210.9999949999999
  0
LINE
  8
_0-0_LAY
  6
CONTINUOUS
 62
    2
 10
1085.2947727262749
 20
1225.9999250000001
 11
1084.2948327262739
 21
1225.0000649999999
  0
LINE
  8
_0-0_LAY
  6
CONTINUOUS
 62
    2
 10
1118.897002726274
 20
1230.198905
 11
1116.5948227262738
 21
1230.7999849999999
  0
LINE
  8
_0-0_LAY
  6
CONTINUOUS
 62
    2
 10
1119.1793527262748
 20
1229.313215000001
 11
1116.5948227262738
 21
1226.2330850000001
  0
LINE
  8
_0-0_LAY
  6
CONTINUOUS
 62
    2
 10
1301.2947627262747
 20
1214.0000049999999
 11
1249.294792726274
 21
1214.0000049999999
  0
LINE
  8
_0-0_LAY
  6
CONTINUOUS
 62
    2
 10
1441.2948327262748
 20
1214.0000049999999
 11
1389.2947627262747
 21
1214.0000049999999
  0
LINE
  8
_0-0_LAY
  6
CONTINUOUS
 62
    2
 10
1093.6925327262747
 20
1230.198905
 11
1095.9947727262747
 21
1230.7999849999999
  0
LINE
  8
_0-0_LAY
  6
CONTINUOUS
 62
    2
 10
1246.2948127262748
 20
1180.999995000001
 11
1246.2948127262748
 21
1210.9999949999999
  0
LINE
  8
_0-0_LAY
  6
CONTINUOUS
 62
    2
 10
1301.2947627262747
 20
1177.9999849999999
 11
1249.294792726274
 21
1177.9999849999999
  0
LINE
  8
_0-0_LAY
  6
CONTINUOUS
 62
    2
 10
1386.2948027262737
 20
1180.999995000001
 11
1386.2948027262737
 21
1210.9999949999999
  0
LINE
  8
_0-0_LAY
  6
CONTINUOUS
 62
    2
 10
1374.2947127262751
 20
1210.9999949999999
 11
1374.2947127262751
 21
1180.999995000001
  0
LINE
  8
_0-0_LAY
  6
CONTINUOUS
 62
    2
 10
1550.2947427262748
 20
1226.000045
 11
1567.2948527262738
 21
1226.000045
  0
LINE
  8
_0-0_LAY
  6
CONTINUOUS
 62
    2
 10
1445.9947527262748
 20
1226.2330850000001
 11
1445.9947527262748
 21
1226.000045
  0
LINE
  8
_0-0_LAY
  6
CONTINUOUS
 62
    2
 10
1231.2947627262747
 20
1214.0000049999999
 11
1179.2947627262747
 21
1214.0000049999999
  0
LINE
  8
_0-0_LAY
  6
CONTINUOUS
 62
    2
 10
1624.2947927262749
 20
1212.0000049999999
 11
1624.2947927262749
 21
1224.5857550000001
  0
LINE
  8
_0-0_LAY
  6
CONTINUOUS
 62
    2
 10
1624.2947927262749
 20
1167.4142449999999
 11
1622.8805227262751
 21
1165.9999949999999
  0
LINE
  8
_0-0_LAY
  6
CONTINUOUS
 62
    2
 10
1610.326812726275
 20
1224.9999949999999
 11
1619.2947227262748
 21
1224.9999949999999
  0
LINE
  8
_0-0_LAY
  6
CONTINUOUS
 62
    2
 10
1620.2947327262741
 20
1226.000045
 11
1619.294822726275
 21
1225.0000649999999
  0
LINE
  8
_0-0_LAY
  6
CONTINUOUS
 62
    2
 10
1176.294772726274
 20
1180.999995000001
 11
1176.294772726274
 21
1210.9999949999999
  0
LINE
  8
_0-0_LAY
  6
CONTINUOUS
 62
    2
 10
1231.2947627262747
 20
1177.9999849999999
 11
1179.2947627262747
 21
1177.9999849999999
  0
LINE
  8
_0-0_LAY
  6
CONTINUOUS
 62
    2
 10
1641.2947527262741
 20
1208.9999949999999
 11
1627.294752726275
 21
1208.9999949999999
  0
LINE
  8
_0-0_LAY
  6
CONTINUOUS
 62
    2
 10
1077.2947727262749
 20
1179.999945
 11
1091.2947727262749
 21
1179.999945
  0
LINE
  8
_0-0_LAY
  6
CONTINUOUS
 62
    2
 10
1130.2947727262749
 20
1226.000045
 11
1147.2948327262748
 21
1226.000045
  0
LINE
  8
_0-0_LAY
  6
CONTINUOUS
 62
    2
 10
1074.2947627262747
 20
1167.4142449999999
 11
1075.7089527262738
 21
1165.9999949999999
  0
LINE
  8
_0-0_LAY
  6
CONTINUOUS
 62
    2
 10
1644.2947627262747
 20
1185.999995000001
 11
1644.2947627262747
 21
1205.9999350000001
  0
LINE
  8
_0-0_LAY
  6
CONTINUOUS
 62
    2
 10
1116.5948227262738
 20
1226.2330850000001
 11
1116.5948227262738
 21
1226.000045
  0
LINE
  8
_0-0_LAY
  6
CONTINUOUS
 62
    2
 10
1259.1792927262741
 20
1229.313215000001
 11
1256.594812726275
 21
1226.2330850000001
  0
LINE
  8
_0-0_LAY
  6
CONTINUOUS
 62
    2
 10
1218.2947627262738
 20
1225.0000649999999
 11
1224.2948327262748
 21
1225.0000649999999
  0
LINE
  8
_0-0_LAY
  6
CONTINUOUS
 62
    2
 10
1303.6925327262738
 20
1230.198905
 11
1305.9947827262749
 21
1230.7999849999999
  0
LINE
  8
_0-0_LAY
  6
CONTINUOUS
 62
    2
 10
1287.2947727262749
 20
1226.000045
 11
1288.294752726275
 21
1225.0000649999999
  0
LINE
  8
_0-0_LAY
  6
CONTINUOUS
 62
    2
 10
1428.2946927262738
 20
1225.0000649999999
 11
1434.2948127262748
 21
1225.0000649999999
  0
LINE
  8
_0-0_LAY
  6
CONTINUOUS
 62
    2
 10
1288.294752726275
 20
1225.0000649999999
 11
1294.2948727262738
 21
1225.0000649999999
  0
LINE
  8
_0-0_LAY
  6
CONTINUOUS
 62
    2
 10
1435.2948127262748
 20
1225.9999250000001
 11
1434.2948127262748
 21
1225.0000649999999
  0
LINE
  8
_0-0_LAY
  6
CONTINUOUS
 62
    2
 10
1305.9947827262749
 20
1226.2330850000001
 11
1305.9947827262749
 21
1226.000045
  0
LINE
  8
_0-0_LAY
  6
CONTINUOUS
 62
    2
 10
1435.2948127262748
 20
1226.000045
 11
1440.9947827262749
 21
1226.000045
  0
LINE
  8
_0-0_LAY
  6
CONTINUOUS
 62
    2
 10
1326.5948227262738
 20
1230.7999849999999
 11
1305.9947827262749
 21
1230.7999849999999
  0
LINE
  8
_0-0_LAY
  6
CONTINUOUS
 62
    2
 10
1609.1793327262749
 20
1229.313215000001
 11
1606.5948227262747
 21
1226.2330850000001
  0
LINE
  8
_0-0_LAY
  6
CONTINUOUS
 62
    2
 10
1497.2947727262749
 20
1226.000045
 11
1498.2947227262748
 21
1225.0000649999999
  0
LINE
  8
_0-0_LAY
  6
CONTINUOUS
 62
    2
 10
1606.5948227262747
 20
1226.2330850000001
 11
1606.5948227262747
 21
1226.000045
  0
LINE
  8
_0-0_LAY
  6
CONTINUOUS
 62
    2
 10
1608.8970027262749
 20
1230.198905
 11
1606.5948227262747
 21
1230.7999849999999
  0
LINE
  8
_0-0_LAY
  6
CONTINUOUS
 62
    2
 10
1295.2947727262749
 20
1226.000045
 11
1300.994742726275
 21
1226.000045
  0
LINE
  8
_0-0_LAY
  6
CONTINUOUS
 62
    2
 10
1295.2947727262749
 20
1225.9999250000001
 11
1294.294822726275
 21
1225.0000649999999
  0
LINE
  8
_0-0_LAY
  6
CONTINUOUS
 62
    2
 10
1303.4101827262748
 20
1229.313215000001
 11
1305.9947827262749
 21
1226.2330850000001
  0
LINE
  8
_0-0_LAY
  6
CONTINUOUS
 62
    2
 10
1624.2947927262749
 20
1179.999945
 11
1624.2947927262749
 21
1167.4142449999999
  0
LINE
  8
_0-0_LAY
  6
CONTINUOUS
 62
    2
 10
1161.2947627262738
 20
1214.0000049999999
 11
1109.2947627262738
 21
1214.0000049999999
  0
LINE
  8
_0-0_LAY
  6
CONTINUOUS
 62
    2
 10
1085.2947727262749
 20
1226.000045
 11
1090.9947227262737
 21
1226.000045
  0
LINE
  8
_0-0_LAY
  6
CONTINUOUS
 62
    2
 10
1627.294752726275
 20
1183.0000049999999
 11
1641.2947527262741
 21
1183.0000049999999
  0
LINE
  8
_0-0_LAY
  6
CONTINUOUS
 62
    2
 10
1095.9947727262747
 20
1226.2330850000001
 11
1095.9947727262747
 21
1226.000045
  0
LINE
  8
_0-0_LAY
  6
CONTINUOUS
 62
    2
 10
1469.1793727262748
 20
1229.313215000001
 11
1466.5948627262751
 21
1226.2330850000001
  0
LINE
  8
_0-0_LAY
  6
CONTINUOUS
 62
    2
 10
1513.4101827262739
 20
1229.313215000001
 11
1515.9947327262748
 21
1226.2330850000001
  0
LINE
  8
_0-0_LAY
  6
CONTINUOUS
 62
    2
 10
1538.8970227262748
 20
1230.198905
 11
1536.594792726275
 21
1230.7999849999999
  0
LINE
  8
_0-0_LAY
  6
CONTINUOUS
 62
    2
 10
1540.326882726275
 20
1224.9999949999999
 11
1549.2947927262749
 21
1224.9999949999999
  0
LINE
  8
_0-0_LAY
  6
CONTINUOUS
 62
    2
 10
1074.2947627262747
 20
1214.9999849999999
 11
1074.2947627262747
 21
1224.5858049999999
  0
LINE
  8
_0-0_LAY
  6
CONTINUOUS
 62
    2
 10
1256.594812726275
 20
1230.7999849999999
 11
1235.9947327262748
 21
1230.7999849999999
  0
LINE
  8
_0-0_LAY
  6
CONTINUOUS
 62
    2
 10
1233.4102427262737
 20
1229.313215000001
 11
1235.9947327262748
 21
1226.2330850000001
  0
LINE
  8
_0-0_LAY
  6
CONTINUOUS
 62
    2
 10
1225.2947627262738
 20
1226.000045
 11
1230.9947127262749
 21
1226.000045
  0
LINE
  8
_0-0_LAY
  6
CONTINUOUS
 62
    2
 10
1165.9948427262748
 20
1226.2330850000001
 11
1165.9948427262748
 21
1226.000045
  0
LINE
  8
_0-0_LAY
  6
CONTINUOUS
 62
    2
 10
1515.9947327262748
 20
1226.2330850000001
 11
1515.9947327262748
 21
1226.000045
  0
LINE
  8
_0-0_LAY
  6
CONTINUOUS
 62
    2
 10
1470.3268927262748
 20
1224.9999949999999
 11
1479.2947627262738
 21
1224.9999949999999
  0
LINE
  8
_0-0_LAY
  6
CONTINUOUS
 62
    2
 10
1466.5948627262751
 20
1226.2330850000001
 11
1466.5948627262751
 21
1226.000045
  0
LINE
  8
_0-0_LAY
  6
CONTINUOUS
 62
    2
 10
1094.2947627262738
 20
1183.0000049999999
 11
1094.2947627262738
 21
1208.9999949999999
  0
LINE
  8
_0-0_LAY
  6
CONTINUOUS
 62
    2
 10
1326.5948227262738
 20
1226.2330850000001
 11
1326.5948227262738
 21
1226.000045
  0
LINE
  8
_0-0_LAY
  6
CONTINUOUS
 62
    2
 10
1328.8970027262749
 20
1230.198905
 11
1326.5948227262738
 21
1230.7999849999999
  0
LINE
  8
_0-0_LAY
  6
CONTINUOUS
 62
    2
 10
1330.326882726275
 20
1224.9999949999999
 11
1339.2947727262749
 21
1224.9999949999999
  0
LINE
  8
_0-0_LAY
  6
CONTINUOUS
 62
    2
 10
1375.9947727262738
 20
1226.2330850000001
 11
1375.9947727262738
 21
1226.000045
  0
LINE
  8
_0-0_LAY
  6
CONTINUOUS
 62
    2
 10
1329.1793527262739
 20
1229.313215000001
 11
1326.5948227262738
 21
1226.2330850000001
  0
LINE
  8
_0-0_LAY
  6
CONTINUOUS
 62
    2
 10
1340.2947727262749
 20
1226.000045
 11
1357.2948327262748
 21
1226.000045
  0
LINE
  8
_0-0_LAY
  6
CONTINUOUS
 62
    2
 10
1357.2947827262738
 20
1226.000045
 11
1358.294702726274
 21
1225.0000649999999
  0
LINE
  8
_0-0_LAY
  6
CONTINUOUS
 62
    2
 10
1498.2947227262748
 20
1225.0000649999999
 11
1504.294842726275
 21
1225.0000649999999
  0
LINE
  8
_0-0_LAY
  6
CONTINUOUS
 62
    2
 10
1539.1793527262748
 20
1229.313215000001
 11
1536.594792726275
 21
1226.2330850000001
  0
LINE
  8
_0-0_LAY
  6
CONTINUOUS
 62
    2
 10
1074.709012726275
 20
1225.0000649999999
 11
1074.2947627262747
 21
1224.5858049999999
  0
LINE
  8
_0-0_LAY
  6
CONTINUOUS
 62
    2
 10
1468.8970427262748
 20
1230.198905
 11
1466.5948627262751
 21
1230.7999849999999
  0
LINE
  8
_0-0_LAY
  6
CONTINUOUS
 62
    2
 10
1358.294702726274
 20
1225.0000649999999
 11
1364.294822726275
 21
1225.0000649999999
  0
LINE
  8
_0-0_LAY
  6
CONTINUOUS
 62
    2
 10
1340.2947727262749
 20
1226.000045
 11
1339.294822726275
 21
1225.0000649999999
  0
LINE
  8
_0-0_LAY
  6
CONTINUOUS
 62
    2
 10
1480.2948127262739
 20
1226.000045
 11
1479.2949127262741
 21
1225.0000649999999
  0
LINE
  8
_0-0_LAY
  6
CONTINUOUS
 62
    2
 10
1270.2947927262749
 20
1226.000045
 11
1269.2948327262748
 21
1225.0000649999999
  0
LINE
  8
_0-0_LAY
  6
CONTINUOUS
 62
    2
 10
1581.294842726275
 20
1177.9999849999999
 11
1529.2947727262749
 21
1177.9999849999999
  0
LINE
  8
_0-0_LAY
  6
CONTINUOUS
 62
    2
 10
1444.294842726275
 20
1210.9999949999999
 11
1444.294842726275
 21
1180.999995000001
  0
LINE
  8
_0-0_LAY
  6
CONTINUOUS
 62
    2
 10
1316.2947627262738
 20
1180.999995000001
 11
1316.2947627262738
 21
1210.9999949999999
  0
LINE
  8
_0-0_LAY
  6
CONTINUOUS
 62
    2
 10
1371.2948027262751
 20
1177.9999849999999
 11
1319.2948027262737
 21
1177.9999849999999
  0
LINE
  8
_0-0_LAY
  6
CONTINUOUS
 62
    2
 10
1511.2947627262738
 20
1214.0000049999999
 11
1459.294842726275
 21
1214.0000049999999
  0
LINE
  8
_0-0_LAY
  6
CONTINUOUS
 62
    2
 10
1304.2948027262737
 20
1210.9999949999999
 11
1304.2948027262737
 21
1180.999995000001
  0
LINE
  8
_0-0_LAY
  6
CONTINUOUS
 62
    2
 10
1371.2948027262751
 20
1214.0000049999999
 11
1319.2948027262737
 21
1214.0000049999999
  0
LINE
  8
_0-0_LAY
  6
CONTINUOUS
 62
    2
 10
1074.2947627262747
 20
1167.4142449999999
 11
1074.2947627262747
 21
1176.9999849999999
  0
LINE
  8
_0-0_LAY
  6
CONTINUOUS
 62
    2
 10
1234.2947727262749
 20
1210.9999949999999
 11
1234.2947727262749
 21
1180.999995000001
  0
LINE
  8
_0-0_LAY
  6
CONTINUOUS
 62
    2
 10
1456.2947827262751
 20
1180.999995000001
 11
1456.2947827262751
 21
1210.9999949999999
  0
LINE
  8
_0-0_LAY
  6
CONTINUOUS
 62
    2
 10
1584.2947627262738
 20
1210.9999949999999
 11
1584.2947627262738
 21
1180.999995000001
  0
LINE
  8
_0-0_LAY
  6
CONTINUOUS
 62
    2
 10
1581.294842726275
 20
1214.0000049999999
 11
1529.2947727262749
 21
1214.0000049999999
  0
LINE
  8
_0-0_LAY
  6
CONTINUOUS
 62
    2
 10
1511.2947627262738
 20
1177.9999849999999
 11
1459.294842726275
 21
1177.9999849999999
  0
LINE
  8
_0-0_LAY
  6
CONTINUOUS
 62
    2
 10
1620.2947327262741
 20
1226.000045
 11
1622.8805227262751
 21
1226.000045
  0
LINE
  8
_0-0_LAY
  6
CONTINUOUS
 62
    2
 10
1161.2947627262738
 20
1177.9999849999999
 11
1109.2947627262738
 21
1177.9999849999999
  0
LINE
  8
_0-0_LAY
  6
CONTINUOUS
 62
    2
 10
1106.2947727262749
 20
1180.999995000001
 11
1106.2947727262749
 21
1210.9999949999999
  0
LINE
  8
_0-0_LAY
  6
CONTINUOUS
 62
    2
 10
1622.8805227262751
 20
1165.9999949999999
 11
1075.7089527262738
 21
1165.9999949999999
  0
LINE
  8
_0-0_LAY
  6
CONTINUOUS
 62
    2
 10
1536.594792726275
 20
1226.2330850000001
 11
1536.594792726275
 21
1226.000045
  0
LINE
  8
_0-0_LAY
  6
CONTINUOUS
 62
    2
 10
1130.2947727262749
 20
1226.000045
 11
1129.2948327262739
 21
1225.0000649999999
  0
LINE
  8
_0-0_LAY
  6
CONTINUOUS
 62
    2
 10
1599.2947627262747
 20
1177.9999849999999
 11
1609.2946927262751
 21
1177.9999849999999
  0
LINE
  8
_0-0_LAY
  6
CONTINUOUS
 62
    2
 10
1505.2947427262739
 20
1226.000045
 11
1510.9947727262738
 21
1226.000045
  0
LINE
  8
_0-0_LAY
  6
CONTINUOUS
 62
    2
 10
1186.5948027262739
 20
1226.2330850000001
 11
1186.5948027262739
 21
1226.000045
  0
LINE
  8
_0-0_LAY
  6
CONTINUOUS
 62
    2
 10
1163.410192726275
 20
1229.313215000001
 11
1165.9948427262748
 21
1226.2330850000001
  0
LINE
  8
_0-0_LAY
  6
CONTINUOUS
 62
    2
 10
1120.3268727262748
 20
1224.9999949999999
 11
1129.2947727262749
 21
1224.9999949999999
  0
LINE
  8
_0-0_LAY
  6
CONTINUOUS
 62
    2
 10
1233.692522726275
 20
1230.198905
 11
1235.9947327262748
 21
1230.7999849999999
  0
LINE
  8
_0-0_LAY
  6
CONTINUOUS
 62
    2
 10
1536.594792726275
 20
1230.7999849999999
 11
1515.9947327262748
 21
1230.7999849999999
  0
LINE
  8
_0-0_LAY
  6
CONTINUOUS
 62
    2
 10
1148.2947127262737
 20
1225.0000649999999
 11
1154.2948327262739
 21
1225.0000649999999
  0
LINE
  8
_0-0_LAY
  6
CONTINUOUS
 62
    2
 10
1526.2947627262747
 20
1180.999995000001
 11
1526.2947627262747
 21
1210.9999949999999
  0
LINE
  8
_0-0_LAY
  6
CONTINUOUS
 62
    2
 10
1514.294822726275
 20
1210.9999949999999
 11
1514.294822726275
 21
1180.999995000001
  0
LINE
  8
_0-0_LAY
  6
CONTINUOUS
 62
    2
 10
1513.6926027262748
 20
1230.198905
 11
1515.9947327262748
 21
1230.7999849999999
  0
LINE
  8
_0-0_LAY
  6
CONTINUOUS
 62
    2
 10
1505.2947427262739
 20
1225.9999250000001
 11
1504.294842726275
 21
1225.0000649999999
  0
LINE
  8
_0-0_LAY
  6
CONTINUOUS
 62
    2
 10
1155.2947727262749
 20
1225.9999250000001
 11
1154.2948327262739
 21
1225.0000649999999
  0
LINE
  8
_0-0_LAY
  6
CONTINUOUS
 62
    2
 10
1147.2947627262747
 20
1226.000045
 11
1148.2947127262737
 21
1225.0000649999999
  0
LINE
  8
_0-0_LAY
  6
CONTINUOUS
 62
    2
 10
1480.2948127262739
 20
1226.000045
 11
1497.294822726275
 21
1226.000045
  0
LINE
  8
_0-0_LAY
  6
CONTINUOUS
 62
    2
 10
1256.594812726275
 20
1226.2330850000001
 11
1256.594812726275
 21
1226.000045
  0
LINE
  8
_0-0_LAY
  6
CONTINUOUS
 62
    2
 10
1260.3268727262739
 20
1224.9999949999999
 11
1269.2947627262747
 21
1224.9999949999999
  0
LINE
  8
_0-0_LAY
  6
CONTINUOUS
 62
    2
 10
1443.692522726275
 20
1230.198905
 11
1445.9947527262748
 21
1230.7999849999999
  0
LINE
  8
_0-0_LAY
  6
CONTINUOUS
 62
    2
 10
1399.1793327262749
 20
1229.313215000001
 11
1396.594882726275
 21
1226.2330850000001
  0
LINE
  8
_0-0_LAY
  6
CONTINUOUS
 62
    2
 10
1365.2948027262737
 20
1225.9999250000001
 11
1364.294822726275
 21
1225.0000649999999
  0
LINE
  8
_0-0_LAY
  6
CONTINUOUS
 62
    2
 10
1200.294752726275
 20
1226.000045
 11
1217.2948327262739
 21
1226.000045
  0
LINE
  8
_0-0_LAY
  6
CONTINUOUS
 62
    2
 10
1190.3268627262751
 20
1224.9999949999999
 11
1199.2947827262751
 21
1224.9999949999999
  0
LINE
  8
_0-0_LAY
  6
CONTINUOUS
 62
    2
 10
1225.2947627262738
 20
1225.9999250000001
 11
1224.2948327262748
 21
1225.0000649999999
  0
LINE
  8
_0-0_LAY
  6
CONTINUOUS
 62
    2
 10
1200.294752726275
 20
1226.000045
 11
1199.294822726275
 21
1225.0000649999999
  0
LINE
  8
_0-0_LAY
  6
CONTINUOUS
 62
    2
 10
1258.8969927262751
 20
1230.198905
 11
1256.594812726275
 21
1230.7999849999999
  0
LINE
  8
_0-0_LAY
  6
CONTINUOUS
 62
    2
 10
1235.9947327262748
 20
1226.2330850000001
 11
1235.9947327262748
 21
1226.000045
  0
LINE
  8
_0-0_LAY
  6
CONTINUOUS
 62
    2
 10
1217.2947627262738
 20
1226.000045
 11
1218.2947627262738
 21
1225.0000649999999
  0
LINE
  8
_0-0_LAY
  6
CONTINUOUS
 62
    2
 10
1622.8805227262751
 20
1226.000045
 11
1624.2947927262749
 21
1224.5857550000001
  0
LINE
  8
_0-0_LAY
  6
CONTINUOUS
 62
    2
 10
1077.2947727262749
 20
1212.0000049999999
 11
1091.2947727262749
 21
1212.0000049999999
  0
LINE
  8
_0-0_LAY
  6
CONTINUOUS
 62
    2
 10
1270.2947927262749
 20
1226.000045
 11
1287.294822726275
 21
1226.000045
  0
LINE
  8
_0-0_LAY
  6
CONTINUOUS
 62
    2
 10
1163.6925327262738
 20
1230.198905
 11
1165.9948427262748
 21
1230.7999849999999
  0
LINE
  8
_0-0_LAY
  6
CONTINUOUS
 62
    2
 10
1186.5948027262739
 20
1230.7999849999999
 11
1165.9948427262748
 21
1230.7999849999999
  0
LINE
  8
_0-0_LAY
  6
CONTINUOUS
 62
    2
 10
1189.1793427262751
 20
1229.313215000001
 11
1186.5948027262739
 21
1226.2330850000001
  0
LINE
  8
_0-0_LAY
  6
CONTINUOUS
 62
    2
 10
1188.8970127262737
 20
1230.198905
 11
1186.5948027262739
 21
1230.7999849999999
  0
LINE
  8
_0-0_LAY
  6
CONTINUOUS
 62
    2
 10
1398.8970627262747
 20
1230.198905
 11
1396.594882726275
 21
1230.7999849999999
  0
LINE
  8
_0-0_LAY
  6
CONTINUOUS
 62
    2
 10
1396.594882726275
 20
1230.7999849999999
 11
1375.9947727262738
 21
1230.7999849999999
  0
LINE
  8
_0-0_LAY
  6
CONTINUOUS
 62
    2
 10
1443.410192726275
 20
1229.313215000001
 11
1445.9947527262748
 21
1226.2330850000001
  0
LINE
  8
_0-0_LAY
  6
CONTINUOUS
 62
    2
 10
1396.594882726275
 20
1226.2330850000001
 11
1396.594882726275
 21
1226.000045
  0
LINE
  8
_0-0_LAY
  6
CONTINUOUS
 62
    2
 10
1365.2948027262737
 20
1226.000045
 11
1370.9947827262749
 21
1226.000045
  0
LINE
  8
_0-0_LAY
  6
CONTINUOUS
 62
    2
 10
1400.3268627262751
 20
1224.9999949999999
 11
1409.294822726275
 21
1224.9999949999999
  0
LINE
  8
_0-0_LAY
  6
CONTINUOUS
 62
    2
 10
1203.1256427262738
 20
1214.000055
 11
1209.1255827262748
 21
1214.000055
  0
ARC
  8
_0-0_LAY
  6
CONTINUOUS
 62
    2
 10
1109.2947627262738
 20
1180.999995000001
 40
3.0000000000000004
 50
180
 51
270
  0
ARC
  8
_0-0_LAY
  6
CONTINUOUS
 62
    2
 10
1091.2947727262749
 20
1208.9999949999999
 40
3.0000000000000004
 50
0
 51
90
  0
ARC
  8
_0-0_LAY
  6
CONTINUOUS
 62
    2
 10
1179.2947627262747
 20
1210.9999949999999
 40
3.0000000000000004
 50
90
 51
180
  0
ARC
  8
_0-0_LAY
  6
CONTINUOUS
 62
    2
 10
1581.294842726275
 20
1210.9999949999999
 40
3.0000000000000004
 50
0
 51
90
  0
ARC
  8
_0-0_LAY
  6
CONTINUOUS
 62
    2
 10
1091.2947727262749
 20
1183.0000049999999
 40
3.0000000000000004
 50
270
 51
0
  0
ARC
  8
_0-0_LAY
  6
CONTINUOUS
 62
    2
 10
1161.2947627262738
 20
1210.9999949999999
 40
3.0000000000000004
 50
0
 51
90
  0
ARC
  8
_0-0_LAY
  6
CONTINUOUS
 62
    2
 10
1077.2947727262749
 20
1214.9999849999999
 40
3.0000000000000004
 50
180
 51
270
  0
ARC
  8
_0-0_LAY
  6
CONTINUOUS
 62
    2
 10
1398.5947827262748
 20
1226.000045
 40
2
 50
179.99979999999286
 51
330.00024999999289
  0
ARC
  8
_0-0_LAY
  6
CONTINUOUS
 62
    2
 10
1161.2947627262738
 20
1180.999995000001
 40
3.0000000000000004
 50
270
 51
0
  0
ARC
  8
_0-0_LAY
  6
CONTINUOUS
 62
    2
 10
1608.7580427262737
 20
1229.6666849999999
 40
0.55
 50
320.0010899999981
 51
75.36732399999903
  0
ARC
  8
_0-0_LAY
  6
CONTINUOUS
 62
    2
 10
1583.4947327262748
 20
1226.000045
 40
2.4999999000000002
 50
179.99968999999481
 51
0.0002746000036495
  0
ARC
  8
_0-0_LAY
  6
CONTINUOUS
 62
    2
 10
1231.2947627262747
 20
1210.9999949999999
 40
3.0000000000000004
 50
0
 51
90
  0
ARC
  8
_0-0_LAY
  6
CONTINUOUS
 62
    2
 10
1583.8314527262737
 20
1229.6666849999999
 40
0.55
 50
104.63267000000282
 51
219.99889999999439
  0
ARC
  8
_0-0_LAY
  6
CONTINUOUS
 62
    2
 10
1179.2947627262747
 20
1180.999995000001
 40
3.0000000000000004
 50
180
 51
270
  0
ARC
  8
_0-0_LAY
  6
CONTINUOUS
 62
    2
 10
1249.294792726274
 20
1210.9999949999999
 40
3.0000000000000004
 50
90
 51
180
  0
ARC
  8
_0-0_LAY
  6
CONTINUOUS
 62
    2
 10
1231.2947627262747
 20
1180.999995000001
 40
3.0000000000000004
 50
270
 51
0
  0
ARC
  8
_0-0_LAY
  6
CONTINUOUS
 62
    2
 10
1468.5948627262751
 20
1226.000045
 40
2
 50
179.99979999999286
 51
330.00024999999289
  0
ARC
  8
_0-0_LAY
  6
CONTINUOUS
 62
    2
 10
1443.4947727262747
 20
1226.000045
 40
2.4999999000000002
 50
179.99968999999481
 51
0.0002746000036495
  0
ARC
  8
_0-0_LAY
  6
CONTINUOUS
 62
    2
 10
1529.2947727262749
 20
1180.999995000001
 40
3.0000000000000004
 50
180
 51
270
  0
ARC
  8
_0-0_LAY
  6
CONTINUOUS
 62
    2
 10
1441.2948327262748
 20
1180.999995000001
 40
3.0000000000000004
 50
270
 51
0
  0
ARC
  8
_0-0_LAY
  6
CONTINUOUS
 62
    2
 10
1581.294842726275
 20
1180.999995000001
 40
3.0000000000000004
 50
270
 51
0
  0
ARC
  8
_0-0_LAY
  6
CONTINUOUS
 62
    2
 10
1529.2947727262749
 20
1210.9999949999999
 40
3.0000000000000004
 50
90
 51
180
  0
ARC
  8
_0-0_LAY
  6
CONTINUOUS
 62
    2
 10
1389.2947627262747
 20
1210.9999949999999
 40
3.0000000000000004
 50
90
 51
180
  0
ARC
  8
_0-0_LAY
  6
CONTINUOUS
 62
    2
 10
1301.2947627262747
 20
1180.999995000001
 40
3.0000000000000004
 50
270
 51
0
  0
ARC
  8
_0-0_LAY
  6
CONTINUOUS
 62
    2
 10
1389.2947627262747
 20
1180.999995000001
 40
3.0000000000000004
 50
180
 51
270
  0
ARC
  8
_0-0_LAY
  6
CONTINUOUS
 62
    2
 10
1371.2948027262751
 20
1180.999995000001
 40
3.0000000000000004
 50
270
 51
0
  0
ARC
  8
_0-0_LAY
  6
CONTINUOUS
 62
    2
 10
1249.294792726274
 20
1180.999995000001
 40
3.0000000000000004
 50
180
 51
270
  0
ARC
  8
_0-0_LAY
  6
CONTINUOUS
 62
    2
 10
1641.2947527262741
 20
1205.9999350000001
 40
3.0000000000000004
 50
0
 51
90
  0
ARC
  8
_0-0_LAY
  6
CONTINUOUS
 62
    2
 10
1641.2947527262741
 20
1185.999995000001
 40
3.0000000000000004
 50
270
 51
0
  0
ARC
  8
_0-0_LAY
  6
CONTINUOUS
 62
    2
 10
1077.2947727262749
 20
1176.9999849999999
 40
3.0000000000000004
 50
90
 51
180
  0
ARC
  8
_0-0_LAY
  6
CONTINUOUS
 62
    2
 10
1118.594812726275
 20
1226.000045
 40
2
 50
179.99979999999286
 51
330.00024999999289
  0
ARC
  8
_0-0_LAY
  6
CONTINUOUS
 62
    2
 10
1627.294752726275
 20
1212.0000049999999
 40
3.0000000000000004
 50
180
 51
270
  0
ARC
  8
_0-0_LAY
  6
CONTINUOUS
 62
    2
 10
1319.2948027262737
 20
1180.999995000001
 40
3.0000000000000004
 50
180
 51
270
  0
ARC
  8
_0-0_LAY
  6
CONTINUOUS
 62
    2
 10
1301.2947627262747
 20
1210.9999949999999
 40
3.0000000000000004
 50
0
 51
90
  0
ARC
  8
_0-0_LAY
  6
CONTINUOUS
 62
    2
 10
1371.2948027262751
 20
1210.9999949999999
 40
3.0000000000000004
 50
0
 51
90
  0
ARC
  8
_0-0_LAY
  6
CONTINUOUS
 62
    2
 10
1319.2948027262737
 20
1210.9999949999999
 40
3.0000000000000004
 50
90
 51
180
  0
ARC
  8
_0-0_LAY
  6
CONTINUOUS
 62
    2
 10
1188.594812726275
 20
1226.000045
 40
2
 50
179.99979999999286
 51
330.00024999999289
  0
ARC
  8
_0-0_LAY
  6
CONTINUOUS
 62
    2
 10
1599.2947627262747
 20
1210.9999949999999
 40
3.0000000000000004
 50
90
 51
180
  0
ARC
  8
_0-0_LAY
  6
CONTINUOUS
 62
    2
 10
1163.8315127262749
 20
1229.6666849999999
 40
0.55
 50
104.63267000000282
 51
219.99889999999439
  0
ARC
  8
_0-0_LAY
  6
CONTINUOUS
 62
    2
 10
1258.5948227262747
 20
1226.000045
 40
2
 50
179.99979999999286
 51
330.00024999999289
  0
ARC
  8
_0-0_LAY
  6
CONTINUOUS
 62
    2
 10
1163.4947727262747
 20
1226.000045
 40
2.4999999000000002
 50
179.99968999999481
 51
0.0002746000036495
  0
ARC
  8
_0-0_LAY
  6
CONTINUOUS
 62
    2
 10
1609.2946927262751
 20
1180.999995000001
 40
3.0000000000000004
 50
270
 51
0
  0
ARC
  8
_0-0_LAY
  6
CONTINUOUS
 62
    2
 10
1328.5948527262749
 20
1226.000045
 40
2
 50
179.99979999999286
 51
330.00024999999289
  0
ARC
  8
_0-0_LAY
  6
CONTINUOUS
 62
    2
 10
1093.4947827262749
 20
1226.000045
 40
2.4999999000000002
 50
179.99968999999481
 51
0.0002746000036495
  0
ARC
  8
_0-0_LAY
  6
CONTINUOUS
 62
    2
 10
1118.758032726274
 20
1229.6666849999999
 40
0.55
 50
320.0010899999981
 51
75.36732399999903
  0
ARC
  8
_0-0_LAY
  6
CONTINUOUS
 62
    2
 10
1188.7580227262738
 20
1229.6666849999999
 40
0.55
 50
320.0010899999981
 51
75.36732399999903
  0
ARC
  8
_0-0_LAY
  6
CONTINUOUS
 62
    2
 10
1328.7580627262751
 20
1229.6666849999999
 40
0.55
 50
320.0010899999981
 51
75.36732399999903
  0
ARC
  8
_0-0_LAY
  6
CONTINUOUS
 62
    2
 10
1093.8315127262749
 20
1229.6666849999999
 40
0.55
 50
104.63267000000282
 51
219.99889999999439
  0
ARC
  8
_0-0_LAY
  6
CONTINUOUS
 62
    2
 10
1303.8315227262738
 20
1229.6666849999999
 40
0.55
 50
104.63267000000282
 51
219.99889999999439
  0
ARC
  8
_0-0_LAY
  6
CONTINUOUS
 62
    2
 10
1258.7580327262749
 20
1229.6666849999999
 40
0.55
 50
320.0010899999981
 51
75.36732399999903
  0
ARC
  8
_0-0_LAY
  6
CONTINUOUS
 62
    2
 10
1109.2947627262738
 20
1210.9999949999999
 40
3.0000000000000004
 50
90
 51
180
  0
ARC
  8
_0-0_LAY
  6
CONTINUOUS
 62
    2
 10
1233.8315127262749
 20
1229.6666849999999
 40
0.55
 50
104.63267000000282
 51
219.99889999999439
  0
ARC
  8
_0-0_LAY
  6
CONTINUOUS
 62
    2
 10
1303.4947827262749
 20
1226.000045
 40
2.4999999000000002
 50
179.99968999999481
 51
0.0002746000036495
  0
ARC
  8
_0-0_LAY
  6
CONTINUOUS
 62
    2
 10
1233.4947727262738
 20
1226.000045
 40
2.4999999000000002
 50
179.99968999999481
 51
0.0002746000036495
  0
ARC
  8
_0-0_LAY
  6
CONTINUOUS
 62
    2
 10
1459.294842726275
 20
1210.9999949999999
 40
3.0000000000000004
 50
90
 51
180
  0
ARC
  8
_0-0_LAY
  6
CONTINUOUS
 62
    2
 10
1468.758082726275
 20
1229.6666849999999
 40
0.55
 50
320.0010899999981
 51
75.36732399999903
  0
ARC
  8
_0-0_LAY
  6
CONTINUOUS
 62
    2
 10
1459.294842726275
 20
1180.999995000001
 40
3.0000000000000004
 50
180
 51
270
  0
ARC
  8
_0-0_LAY
  6
CONTINUOUS
 62
    2
 10
1441.2948327262748
 20
1210.9999949999999
 40
3.0000000000000004
 50
0
 51
90
  0
ARC
  8
_0-0_LAY
  6
CONTINUOUS
 62
    2
 10
1511.2947627262738
 20
1180.999995000001
 40
3.0000000000000004
 50
270
 51
0
  0
ARC
  8
_0-0_LAY
  6
CONTINUOUS
 62
    2
 10
1538.7579627262749
 20
1229.6666849999999
 40
0.55
 50
320.0010899999981
 51
75.36732399999903
  0
ARC
  8
_0-0_LAY
  6
CONTINUOUS
 62
    2
 10
1608.5948327262749
 20
1226.000045
 40
2
 50
179.99979999999286
 51
330.00024999999289
  0
ARC
  8
_0-0_LAY
  6
CONTINUOUS
 62
    2
 10
1511.2947627262738
 20
1210.9999949999999
 40
3.0000000000000004
 50
0
 51
90
  0
ARC
  8
_0-0_LAY
  6
CONTINUOUS
 62
    2
 10
1398.7580427262737
 20
1229.6666849999999
 40
0.55
 50
320.0010899999981
 51
75.36732399999903
  0
ARC
  8
_0-0_LAY
  6
CONTINUOUS
 62
    2
 10
1609.2946927262751
 20
1210.9999949999999
 40
3.0000000000000004
 50
0
 51
90
  0
ARC
  8
_0-0_LAY
  6
CONTINUOUS
 62
    2
 10
1513.8315227262738
 20
1229.6666849999999
 40
0.55
 50
104.63267000000282
 51
219.99889999999439
  0
ARC
  8
_0-0_LAY
  6
CONTINUOUS
 62
    2
 10
1599.2947627262747
 20
1180.999995000001
 40
3.0000000000000004
 50
180
 51
270
  0
ARC
  8
_0-0_LAY
  6
CONTINUOUS
 62
    2
 10
1627.294752726275
 20
1179.999945
 40
3.0000000000000004
 50
90
 51
180
  0
ARC
  8
_0-0_LAY
  6
CONTINUOUS
 62
    2
 10
1538.5948027262748
 20
1226.000045
 40
2
 50
179.99979999999286
 51
330.00024999999289
  0
ARC
  8
_0-0_LAY
  6
CONTINUOUS
 62
    2
 10
1373.8315027262738
 20
1229.6666849999999
 40
0.55
 50
104.63267000000282
 51
219.99889999999439
  0
ARC
  8
_0-0_LAY
  6
CONTINUOUS
 62
    2
 10
1513.494852726275
 20
1226.000045
 40
2.4999999000000002
 50
179.99968999999481
 51
0.0002746000036495
  0
ARC
  8
_0-0_LAY
  6
CONTINUOUS
 62
    2
 10
1443.8314827262739
 20
1229.6666849999999
 40
0.55
 50
104.63267000000282
 51
219.99889999999439
  0
ARC
  8
_0-0_LAY
  6
CONTINUOUS
 62
    2
 10
1373.4947827262749
 20
1226.000045
 40
2.4999999000000002
 50
179.99968999999481
 51
0.0002746000036495
  0
ARC
  8
_0-0_LAY
  6
CONTINUOUS
 62
    2
 10
2968.8470237164861
 20
2012.6248353909391
 40
3.0000000000000004
 50
327.8372565271859
 51
44.999999999990621
  0
LINE
  8
_0-0_LAY
  6
CONTINUOUS
 62
    2
 10
2938.7896644036068
 20
2043.62483539094
 11
2940.8470237164879
 21
2043.62483539094
  0
ARC
  8
_0-0_LAY
  6
CONTINUOUS
 62
    2
 10
3195.7896644036068
 20
2039.6248353909391
 40
3.0000000000000004
 50
90
 51
180
  0
LINE
  8
_0-0_LAY
  6
CONTINUOUS
 62
    2
 10
3192.7896644036073
 20
2013.62483539094
 11
3192.7896644036073
 21
2039.6248353909391
  0
ARC
  8
_0-0_LAY
  6
CONTINUOUS
 62
    2
 10
3195.7896644036068
 20
2013.62483539094
 40
3.0000000000000004
 50
180
 51
270
  0
ARC
  8
_0-0_LAY
  6
CONTINUOUS
 62
    2
 10
3177.7896644036073
 20
2040.6248353909391
 40
3.0000000000000004
 50
0
 51
90
  0
LINE
  8
_0-0_LAY
  6
CONTINUOUS
 62
    2
 10
3180.7896644036059
 20
2012.6248353909391
 11
3180.7896644036059
 21
2040.6248353909391
  0
ARC
  8
_0-0_LAY
  6
CONTINUOUS
 62
    2
 10
3177.7896644036073
 20
2012.6248353909391
 40
3.0000000000000004
 50
270
 51
0
  0
LINE
  8
_0-0_LAY
  6
CONTINUOUS
 62
    2
 10
3138.7896644036068
 20
2009.6248353909391
 11
3177.7896644036073
 21
2009.6248353909391
  0
ARC
  8
_0-0_LAY
  6
CONTINUOUS
 62
    2
 10
3138.7896644036068
 20
2012.6248353909391
 40
3.0000000000000004
 50
180
 51
270
  0
LINE
  8
_0-0_LAY
  6
CONTINUOUS
 62
    2
 10
3135.7896644036068
 20
2040.6248353909391
 11
3135.7896644036068
 21
2012.6248353909391
  0
LINE
  8
_0-0_LAY
  6
CONTINUOUS
 62
    2
 10
3138.7896644036068
 20
2043.62483539094
 11
3177.7896644036073
 21
2043.62483539094
  0
ARC
  8
_0-0_LAY
  6
CONTINUOUS
 62
    2
 10
3138.7896644036068
 20
2040.6248353909391
 40
3.0000000000000004
 50
90
 51
180
  0
ARC
  8
_0-0_LAY
  6
CONTINUOUS
 62
    2
 10
3120.2896644036073
 20
2040.6248353909391
 40
3.0000000000000004
 50
0
 51
90
  0
LINE
  8
_0-0_LAY
  6
CONTINUOUS
 62
    2
 10
3123.2896644036068
 20
2012.6248353909391
 11
3123.2896644036068
 21
2040.6248353909391
  0
ARC
  8
_0-0_LAY
  6
CONTINUOUS
 62
    2
 10
3120.2896644036073
 20
2012.6248353909391
 40
3.0000000000000004
 50
270
 51
0
  0
LINE
  8
_0-0_LAY
  6
CONTINUOUS
 62
    2
 10
3084.2896644036059
 20
2009.6248353909391
 11
3120.2896644036073
 21
2009.6248353909391
  0
ARC
  8
_0-0_LAY
  6
CONTINUOUS
 62
    2
 10
3084.2896644036059
 20
2012.6248353909391
 40
3.0000000000000004
 50
180
 51
270
  0
LINE
  8
_0-0_LAY
  6
CONTINUOUS
 62
    2
 10
3081.2896644036064
 20
2040.6248353909391
 11
3081.2896644036064
 21
2012.6248353909391
  0
LINE
  8
_0-0_LAY
  6
CONTINUOUS
 62
    2
 10
3084.2896644036059
 20
2043.62483539094
 11
3120.2896644036073
 21
2043.62483539094
  0
ARC
  8
_0-0_LAY
  6
CONTINUOUS
 62
    2
 10
3084.2896644036059
 20
2040.6248353909391
 40
3.0000000000000004
 50
90
 51
180
  0
ARC
  8
_0-0_LAY
  6
CONTINUOUS
 62
    2
 10
3065.7896644036068
 20
2040.6248353909391
 40
3.0000000000000004
 50
0
 51
90
  0
LINE
  8
_0-0_LAY
  6
CONTINUOUS
 62
    2
 10
3068.7896644036068
 20
2012.6248353909391
 11
3068.7896644036068
 21
2040.6248353909391
  0
ARC
  8
_0-0_LAY
  6
CONTINUOUS
 62
    2
 10
3065.7896644036068
 20
2012.6248353909391
 40
3.0000000000000004
 50
270
 51
0
  0
LINE
  8
_0-0_LAY
  6
CONTINUOUS
 62
    2
 10
3026.7896644036059
 20
2009.6248353909391
 11
3065.7896644036068
 21
2009.6248353909391
  0
ARC
  8
_0-0_LAY
  6
CONTINUOUS
 62
    2
 10
3026.7896644036059
 20
2012.6248353909391
 40
3.0000000000000004
 50
180
 51
270
  0
LINE
  8
_0-0_LAY
  6
CONTINUOUS
 62
    2
 10
3023.7896644036064
 20
2040.6248353909391
 11
3023.7896644036064
 21
2012.6248353909391
  0
LINE
  8
_0-0_LAY
  6
CONTINUOUS
 62
    2
 10
3026.7896644036059
 20
2043.62483539094
 11
3065.7896644036068
 21
2043.62483539094
  0
ARC
  8
_0-0_LAY
  6
CONTINUOUS
 62
    2
 10
3026.7896644036059
 20
2040.6248353909391
 40
3.0000000000000004
 50
90
 51
180
  0
ARC
  8
_0-0_LAY
  6
CONTINUOUS
 62
    2
 10
3008.2896644036068
 20
2040.6248353909391
 40
3.0000000000000004
 50
0
 51
90
  0
LINE
  8
_0-0_LAY
  6
CONTINUOUS
 62
    2
 10
3011.2896644036064
 20
2012.6248353909391
 11
3011.2896644036064
 21
2040.6248353909391
  0
ARC
  8
_0-0_LAY
  6
CONTINUOUS
 62
    2
 10
3008.2896644036068
 20
2012.6248353909391
 40
3.0000000000000004
 50
270
 51
0
  0
ARC
  8
_0-0_LAY
  6
CONTINUOUS
 62
    2
 10
2989.3323050907261
 20
2012.6248353909391
 40
3.0000000000000004
 50
224.99999999999062
 51
270
  0
ARC
  8
_0-0_LAY
  6
CONTINUOUS
 62
    2
 10
2961.3323050907265
 20
2040.6248353909391
 40
3.0000000000000004
 50
90
 51
224.99999999999059
  0
LINE
  8
_0-0_LAY
  6
CONTINUOUS
 62
    2
 10
3210.7896644036059
 20
2056.6248353909391
 11
3212.7896644036064
 21
2054.6248353909391
  0
LINE
  8
_0-0_LAY
  6
CONTINUOUS
 62
    2
 10
3212.7896644036064
 20
2044.62483539094
 11
3212.7896644036064
 21
2054.6248353909391
  0
LINE
  8
_0-0_LAY
  6
CONTINUOUS
 62
    2
 10
3210.7896644036059
 20
2042.6248353909391
 11
3195.7896644036068
 21
2042.6248353909391
  0
LINE
  8
_0-0_LAY
  6
CONTINUOUS
 62
    2
 10
3212.7896644036064
 20
2044.62483539094
 11
3210.7896644036059
 21
2042.6248353909391
  0
LINE
  8
_0-0_LAY
  6
CONTINUOUS
 62
    2
 10
3210.7896644036059
 20
2010.62483539094
 11
3195.7896644036068
 21
2010.62483539094
  0
LINE
  8
_0-0_LAY
  6
CONTINUOUS
 62
    2
 10
3210.7896644036059
 20
2010.62483539094
 11
3212.7896644036064
 21
2008.6248353909391
  0
LINE
  8
_0-0_LAY
  6
CONTINUOUS
 62
    2
 10
3212.7896644036064
 20
1998.62483539094
 11
3212.7896644036064
 21
2008.6248353909391
  0
LINE
  8
_0-0_LAY
  6
CONTINUOUS
 62
    2
 10
3212.7896644036064
 20
1998.62483539094
 11
3210.7896644036059
 21
1996.62483539094
  0
LINE
  8
_0-0_LAY
  6
CONTINUOUS
 62
    2
 10
2959.210984747167
 20
2038.50351504738
 11
2987.210984747167
 21
2010.50351504738
  0
LINE
  8
_0-0_LAY
  6
CONTINUOUS
 62
    2
 10
2989.3323050907261
 20
2009.6248353909391
 11
3008.2896644036068
 21
2009.6248353909391
  0
ARC
  8
_0-0_LAY
  6
CONTINUOUS
 62
    2
 10
2940.8470237164879
 20
2040.6248353909391
 40
3.0000000000000004
 50
44.999999999990621
 51
90
  0
LINE
  8
_0-0_LAY
  6
CONTINUOUS
 62
    2
 10
3210.7896644036059
 20
1996.62483539094
 11
2985.7896644036068
 21
1996.62483539094
  0
LINE
  8
_0-0_LAY
  6
CONTINUOUS
 62
    2
 10
2938.7896644036068
 20
2043.62483539094
 11
2938.7896644036068
 21
2041.5674760780589
  0
ARC
  8
_0-0_LAY
  6
CONTINUOUS
 62
    2
 10
2942.7896644036073
 20
1786.6248353909391
 40
2.9999999999999991
 50
90
 51
180
  0
LINE
  8
_0-0_LAY
  6
CONTINUOUS
 62
    2
 10
2968.7896644036064
 20
1789.62483539094
 11
2942.7896644036073
 21
1789.62483539094
  0
ARC
  8
_0-0_LAY
  6
CONTINUOUS
 62
    2
 10
2968.7896644036064
 20
1786.6248353909391
 40
2.9999999999999991
 50
0
 51
90
  0
ARC
  8
_0-0_LAY
  6
CONTINUOUS
 62
    2
 10
2941.7896644036068
 20
1804.62483539094
 40
2.9999999999999991
 50
180
 51
270
  0
LINE
  8
_0-0_LAY
  6
CONTINUOUS
 62
    2
 10
2969.7896644036068
 20
1801.62483539094
 11
2941.7896644036068
 21
1801.62483539094
  0
ARC
  8
_0-0_LAY
  6
CONTINUOUS
 62
    2
 10
2969.7896644036068
 20
1804.62483539094
 40
2.9999999999999991
 50
270
 51
0
  0
LINE
  8
_0-0_LAY
  6
CONTINUOUS
 62
    2
 10
2972.7896644036073
 20
1843.62483539094
 11
2972.7896644036073
 21
1804.62483539094
  0
ARC
  8
_0-0_LAY
  6
CONTINUOUS
 62
    2
 10
2969.7896644036068
 20
1843.62483539094
 40
2.9999999999999991
 50
0
 51
90
  0
LINE
  8
_0-0_LAY
  6
CONTINUOUS
 62
    2
 10
2941.7896644036068
 20
1846.62483539094
 11
2969.7896644036068
 21
1846.62483539094
  0
LINE
  8
_0-0_LAY
  6
CONTINUOUS
 62
    2
 10
2938.7896644036068
 20
1843.62483539094
 11
2938.7896644036068
 21
1804.62483539094
  0
ARC
  8
_0-0_LAY
  6
CONTINUOUS
 62
    2
 10
2941.7896644036068
 20
1843.62483539094
 40
2.9999999999999991
 50
90
 51
180
  0
ARC
  8
_0-0_LAY
  6
CONTINUOUS
 62
    2
 10
2941.7896644036068
 20
1862.1248353909391
 40
2.9999999999999991
 50
180
 51
270
  0
LINE
  8
_0-0_LAY
  6
CONTINUOUS
 62
    2
 10
2969.7896644036068
 20
1859.12483539094
 11
2941.7896644036068
 21
1859.12483539094
  0
ARC
  8
_0-0_LAY
  6
CONTINUOUS
 62
    2
 10
2969.7896644036068
 20
1862.1248353909391
 40
2.9999999999999991
 50
270
 51
0
  0
LINE
  8
_0-0_LAY
  6
CONTINUOUS
 62
    2
 10
2972.7896644036073
 20
1898.1248353909391
 11
2972.7896644036073
 21
1862.1248353909391
  0
ARC
  8
_0-0_LAY
  6
CONTINUOUS
 62
    2
 10
2969.7896644036068
 20
1898.1248353909391
 40
2.9999999999999991
 50
0
 51
90
  0
LINE
  8
_0-0_LAY
  6
CONTINUOUS
 62
    2
 10
2941.7896644036068
 20
1901.12483539094
 11
2969.7896644036068
 21
1901.12483539094
  0
LINE
  8
_0-0_LAY
  6
CONTINUOUS
 62
    2
 10
2938.7896644036068
 20
1898.1248353909391
 11
2938.7896644036068
 21
1862.1248353909391
  0
ARC
  8
_0-0_LAY
  6
CONTINUOUS
 62
    2
 10
2941.7896644036068
 20
1898.1248353909391
 40
2.9999999999999991
 50
90
 51
180
  0
ARC
  8
_0-0_LAY
  6
CONTINUOUS
 62
    2
 10
2941.7896644036068
 20
1916.62483539094
 40
2.9999999999999991
 50
180
 51
270
  0
LINE
  8
_0-0_LAY
  6
CONTINUOUS
 62
    2
 10
2969.7896644036068
 20
1913.62483539094
 11
2941.7896644036068
 21
1913.62483539094
  0
ARC
  8
_0-0_LAY
  6
CONTINUOUS
 62
    2
 10
2969.7896644036068
 20
1916.62483539094
 40
2.9999999999999991
 50
270
 51
0
  0
LINE
  8
_0-0_LAY
  6
CONTINUOUS
 62
    2
 10
2972.7896644036073
 20
1955.62483539094
 11
2972.7896644036073
 21
1916.62483539094
  0
ARC
  8
_0-0_LAY
  6
CONTINUOUS
 62
    2
 10
2969.7896644036068
 20
1955.62483539094
 40
2.9999999999999991
 50
0
 51
90
  0
LINE
  8
_0-0_LAY
  6
CONTINUOUS
 62
    2
 10
2941.7896644036068
 20
1958.62483539094
 11
2969.7896644036068
 21
1958.62483539094
  0
LINE
  8
_0-0_LAY
  6
CONTINUOUS
 62
    2
 10
2938.7896644036068
 20
1955.62483539094
 11
2938.7896644036068
 21
1916.62483539094
  0
ARC
  8
_0-0_LAY
  6
CONTINUOUS
 62
    2
 10
2941.7896644036068
 20
1955.62483539094
 40
2.9999999999999991
 50
90
 51
180
  0
ARC
  8
_0-0_LAY
  6
CONTINUOUS
 62
    2
 10
2941.7896644036068
 20
1974.1248353909391
 40
2.9999999999999991
 50
180
 51
270
  0
LINE
  8
_0-0_LAY
  6
CONTINUOUS
 62
    2
 10
2969.7896644036068
 20
1971.1248353909391
 11
2941.7896644036068
 21
1971.1248353909391
  0
ARC
  8
_0-0_LAY
  6
CONTINUOUS
 62
    2
 10
2969.7896644036068
 20
1974.1248353909391
 40
2.9999999999999991
 50
270
 51
0
  0
ARC
  8
_0-0_LAY
  6
CONTINUOUS
 62
    2
 10
2969.7896644036068
 20
1993.0821947038198
 40
2.9999999999999991
 50
0
 51
44.999999999990621
  0
ARC
  8
_0-0_LAY
  6
CONTINUOUS
 62
    2
 10
2941.7896644036068
 20
2021.0821947038198
 40
2.9999999999999991
 50
44.999999999990621
 51
180
  0
LINE
  8
_0-0_LAY
  6
CONTINUOUS
 62
    2
 10
2925.7896644036068
 20
1771.62483539094
 11
2927.7896644036077
 21
1769.62483539094
  0
LINE
  8
_0-0_LAY
  6
CONTINUOUS
 62
    2
 10
2937.7896644036073
 20
1769.62483539094
 11
2927.7896644036077
 21
1769.62483539094
  0
LINE
  8
_0-0_LAY
  6
CONTINUOUS
 62
    2
 10
2939.7896644036068
 20
1771.62483539094
 11
2939.7896644036068
 21
1786.6248353909391
  0
LINE
  8
_0-0_LAY
  6
CONTINUOUS
 62
    2
 10
2937.7896644036073
 20
1769.62483539094
 11
2939.7896644036068
 21
1771.62483539094
  0
LINE
  8
_0-0_LAY
  6
CONTINUOUS
 62
    2
 10
2971.7896644036068
 20
1771.62483539094
 11
2971.7896644036068
 21
1786.6248353909391
  0
LINE
  8
_0-0_LAY
  6
CONTINUOUS
 62
    2
 10
2971.7896644036068
 20
1771.62483539094
 11
2973.7896644036064
 21
1769.62483539094
  0
LINE
  8
_0-0_LAY
  6
CONTINUOUS
 62
    2
 10
2983.7896644036064
 20
1769.62483539094
 11
2973.7896644036064
 21
1769.62483539094
  0
LINE
  8
_0-0_LAY
  6
CONTINUOUS
 62
    2
 10
2983.7896644036064
 20
1769.62483539094
 11
2985.7896644036068
 21
1771.62483539094
  0
LINE
  8
_0-0_LAY
  6
CONTINUOUS
 62
    2
 10
2938.7896644036068
 20
2021.0821947038198
 11
2938.7896644036068
 21
1974.1248353909391
  0
ARC
  8
_0-0_LAY
  6
CONTINUOUS
 62
    2
 10
2941.7896644036068
 20
2041.5674760780589
 40
2.9999999999999991
 50
180
 51
224.99999999999059
  0
ARC
  8
_0-0_LAY
  6
CONTINUOUS
 62
    2
 10
2969.7896644036068
 20
2013.5674760780589
 40
2.9999999999999991
 50
224.99999999999062
 51
302.16274347282558
  0
LINE
  8
_0-0_LAY
  6
CONTINUOUS
 62
    2
 10
2985.7896644036068
 20
1771.62483539094
 11
2985.7896644036068
 21
1996.62483539094
  0
LINE
  8
_0-0_LAY
  6
CONTINUOUS
 62
    2
 10
2930.7896644036068
 20
2056.6248353909391
 11
3210.7896644036059
 21
2056.6248353909391
  0
LINE
  8
_0-0_LAY
  6
CONTINUOUS
 62
    2
 10
2925.7896644036068
 20
2051.6248353909391
 11
2925.7896644036068
 21
1771.62483539094
  0
ARC
  8
_0-0_LAY
  6
CONTINUOUS
 62
    2
 10
2930.7896644036068
 20
2051.6248353909391
 40
5
 50
90
 51
180
  0
LINE
  8
_0-0_LAY
  6
CONTINUOUS
 62
    2
 10
2927.2541304976739
 20
2055.160369296872
 11
2938.7896644036068
 21
2043.62483539094
  0
LINE
  8
_0-0_LAY
  6
CONTINUOUS
 62
    2
 10
2971.3866421850157
 20
2011.0278576095311
 11
2985.7896644036068
 21
1996.62483539094
  0
LINE
  8
_0-0_LAY
  6
CONTINUOUS
 62
    2
 10
3128.7896644036068
 20
1993.62483539094
 11
2988.7896644036068
 21
1993.62483539094
  0
LINE
  8
_0-0_LAY
  6
CONTINUOUS
 62
    2
 10
3128.7896644036068
 20
1993.62483539094
 11
3128.7896644036068
 21
1996.62483539094
  0
LINE
  8
_0-0_LAY
  6
CONTINUOUS
 62
    2
 10
3103.7896644036068
 20
1979.8618922262172
 11
3103.7896644036068
 21
2039.6005462855501
  0
LINE
  8
_0-0_LAY
  6
CONTINUOUS
 62
    2
 10
3106.7898722530585
 20
2021.624507120775
 11
3100.7899514338001
 21
2021.6245689807301
  0
LINE
  8
_0-0_LAY
  6
CONTINUOUS
 62
    2
 10
3103.7899118434302
 20
2036.6244947487839
 11
3101.2900273153468
 21
2034.1244865007898
  0
LINE
  8
_0-0_LAY
  6
CONTINUOUS
 62
    2
 10
3103.7899118434302
 20
2036.6244947487839
 11
3106.2897963715127
 21
2034.1244865007898
  0
LINE
  8
_0-0_LAY
  6
CONTINUOUS
 62
    2
 10
3106.2897963715127
 20
1996.8246034573458
 11
3106.2897963715127
 21
2034.1244865007898
  0
LINE
  8
_0-0_LAY
  6
CONTINUOUS
 62
    2
 10
3101.2897798755243
 20
1996.8246034573458
 11
3101.2900273153468
 21
2034.1244865007898
  0
LINE
  8
_0-0_LAY
  6
CONTINUOUS
 62
    2
 10
3106.7898722530585
 20
1996.8245415973902
 11
3106.7898722530585
 21
2021.624507120775
  0
LINE
  8
_0-0_LAY
  6
CONTINUOUS
 62
    2
 10
3106.7896248132356
 20
1996.8245415973902
 11
3109.9897640393751
 21
1993.6245260911619
  0
LINE
  8
_0-0_LAY
  6
CONTINUOUS
 62
    2
 10
3100.7899514338001
 20
1996.8246034573458
 11
3097.589812207661
 21
1993.6245879511171
  0
LINE
  8
_0-0_LAY
  6
CONTINUOUS
 62
    2
 10
3100.7897039939785
 20
1996.824479737435
 11
3100.7899514338001
 21
2021.6245689807301
  0
LINE
  8
_0-0_LAY
  6
CONTINUOUS
 62
    2
 10
3100.7897039939785
 20
1996.824479737435
 11
3106.7225436884296
 21
1996.824479737435
  0
LINE
  8
_0-0_LAY
  6
CONTINUOUS
 62
    2
 10
3002.5526075683297
 20
1878.62483539094
 11
2942.8139535089967
 21
1878.62483539094
  0
LINE
  8
_0-0_LAY
  6
CONTINUOUS
 62
    2
 10
2960.7899926737709
 20
1875.6246275414878
 11
2960.7899308138158
 21
1881.6245483607449
  0
LINE
  8
_0-0_LAY
  6
CONTINUOUS
 62
    2
 10
2945.7900050457629
 20
1878.6245879511171
 11
2948.2900132937575
 21
1881.1244724792
  0
LINE
  8
_0-0_LAY
  6
CONTINUOUS
 62
    2
 10
2945.7900050457629
 20
1878.6245879511171
 11
2948.2900132937575
 21
1876.1247034230341
  0
LINE
  8
_0-0_LAY
  6
CONTINUOUS
 62
    2
 10
2985.589896337201
 20
1876.1247034230341
 11
2948.2900132937575
 21
1876.1247034230341
  0
LINE
  8
_0-0_LAY
  6
CONTINUOUS
 62
    2
 10
2985.589896337201
 20
1881.124719919022
 11
2948.2900132937575
 21
1881.1244724792
  0
LINE
  8
_0-0_LAY
  6
CONTINUOUS
 62
    2
 10
2985.5899581971571
 20
1875.6246275414878
 11
2960.7899926737709
 21
1875.6246275414878
  0
LINE
  8
_0-0_LAY
  6
CONTINUOUS
 62
    2
 10
2985.5899581971571
 20
1875.6248749813108
 11
2988.7899737033849
 21
1872.4247357551708
  0
LINE
  8
_0-0_LAY
  6
CONTINUOUS
 62
    2
 10
2985.589896337201
 20
1881.6245483607449
 11
2988.7899118434298
 21
1884.8246875868849
  0
LINE
  8
_0-0_LAY
  6
CONTINUOUS
 62
    2
 10
2985.5900200571109
 20
1881.6247958005679
 11
2960.7899308138158
 21
1881.6245483607449
  0
LINE
  8
_0-0_LAY
  6
CONTINUOUS
 62
    2
 10
2988.7896644036068
 20
1993.62483539094
 11
2988.7896644036068
 21
1853.62483539094
  0
LINE
  8
_0-0_LAY
  6
CONTINUOUS
 62
    2
 10
2985.5900200571109
 20
1881.6247958005679
 11
2985.5900200571109
 21
1875.6919561061159
  0
LINE
  8
_0-0_LAY
  6
CONTINUOUS
 62
    2
 10
2988.7896644036068
 20
1853.62483539094
 11
2985.7896644036068
 21
1853.62483539094
  0
LINE
  8
_0-0_LAY
  6
CONTINUOUS
 62
    2
 10
2972.7896644036073
 20
1993.0821947038198
 11
2972.7896644036073
 21
1974.1248353909391
  0
LINE
  8
_0-0_LAY
  6
CONTINUOUS
 62
    2
 10
2943.9109847471668
 20
2023.2035150473812
 11
2971.9109847471659
 21
1995.2035150473798
  0
LINE
  8
_0-0_LAY
  6
CONTINUOUS
 62
    2
 10
2967.6683440600477
 20
2011.4461557344998
 11
2939.6683440600477
 21
2039.4461557344998
  0
LINE
  8
_0-0_LAY
  6
CONTINUOUS
 62
    2
 10
2970.968344060047
 20
2014.7461557344991
 11
2942.9683440600479
 21
2042.7461557344991
  0
LINE
  8
_0-0_LAY
  6
CONTINUOUS
 62
    2
 10
2961.3323050907265
 20
2043.62483539094
 11
3008.2896644036068
 21
2043.62483539094
  0
LINE
  8
_0-0_LAY
  6
CONTINUOUS
 62
    2
 10
2935.7896644036068
 20
1339.5
 11
3210.7896644036059
 21
1339.5
  0
LINE
  8
_0-0_LAY
  6
CONTINUOUS
 62
    2
 10
3071.7896644036068
 20
1326.5
 11
3115.7896644036068
 21
1326.5
  0
LINE
  8
_0-0_LAY
  6
CONTINUOUS
 62
    2
 10
3071.7896644036068
 20
1292.5
 11
3115.7896644036068
 21
1292.5
  0
LINE
  8
_0-0_LAY
  6
CONTINUOUS
 62
    2
 10
2995.7896644036068
 20
1279.5
 11
3210.7896644036059
 21
1279.5
  0
LINE
  8
_0-0_LAY
  6
CONTINUOUS
 62
    2
 10
2925.7896644036068
 20
1329.5
 11
2925.7896644036068
 21
1054.4999999999991
  0
LINE
  8
_0-0_LAY
  6
CONTINUOUS
 62
    2
 10
2938.7896644036068
 20
1193.4999999999991
 11
2938.7896644036068
 21
1149.4999999999991
  0
LINE
  8
_0-0_LAY
  6
CONTINUOUS
 62
    2
 10
2972.7896644036073
 20
1193.4999999999991
 11
2972.7896644036073
 21
1149.4999999999991
  0
LINE
  8
_0-0_LAY
  6
CONTINUOUS
 62
    2
 10
2985.7896644036068
 20
1269.5
 11
2985.7896644036068
 21
1054.4999999999991
  0
ARC
  8
_0-0_LAY
  6
CONTINUOUS
 62
    2
 10
2941.7896644036068
 20
1088.4999999999991
 40
3.0000000000000004
 50
180
 51
270
  0
LINE
  8
_0-0_LAY
  6
CONTINUOUS
 62
    2
 10
2969.7896644036068
 20
1085.4999999999991
 11
2941.7896644036068
 21
1085.4999999999991
  0
ARC
  8
_0-0_LAY
  6
CONTINUOUS
 62
    2
 10
2969.7896644036068
 20
1088.4999999999991
 40
3.0000000000000004
 50
270
 51
0
  0
LINE
  8
_0-0_LAY
  6
CONTINUOUS
 62
    2
 10
2972.7896644036073
 20
1130.4999999999991
 11
2972.7896644036073
 21
1088.4999999999991
  0
ARC
  8
_0-0_LAY
  6
CONTINUOUS
 62
    2
 10
2969.7896644036068
 20
1130.4999999999991
 40
3.0000000000000004
 50
0
 51
90
  0
LINE
  8
_0-0_LAY
  6
CONTINUOUS
 62
    2
 10
2941.7896644036068
 20
1133.4999999999991
 11
2969.7896644036068
 21
1133.4999999999991
  0
LINE
  8
_0-0_LAY
  6
CONTINUOUS
 62
    2
 10
2938.7896644036068
 20
1130.4999999999991
 11
2938.7896644036068
 21
1088.4999999999991
  0
ARC
  8
_0-0_LAY
  6
CONTINUOUS
 62
    2
 10
2941.7896644036068
 20
1130.4999999999991
 40
3.0000000000000004
 50
90
 51
180
  0
ARC
  8
_0-0_LAY
  6
CONTINUOUS
 62
    2
 10
2941.7896644036068
 20
1149.4999999999991
 40
3.0000000000000004
 50
180
 51
270
  0
LINE
  8
_0-0_LAY
  6
CONTINUOUS
 62
    2
 10
2969.7896644036068
 20
1146.4999999999991
 11
2941.7896644036068
 21
1146.4999999999991
  0
ARC
  8
_0-0_LAY
  6
CONTINUOUS
 62
    2
 10
2969.7896644036068
 20
1149.4999999999991
 40
3.0000000000000004
 50
270
 51
0
  0
ARC
  8
_0-0_LAY
  6
CONTINUOUS
 62
    2
 10
2969.7896644036068
 20
1193.4999999999991
 40
3.0000000000000004
 50
0
 51
90
  0
LINE
  8
_0-0_LAY
  6
CONTINUOUS
 62
    2
 10
2941.7896644036068
 20
1196.5
 11
2969.7896644036068
 21
1196.5
  0
ARC
  8
_0-0_LAY
  6
CONTINUOUS
 62
    2
 10
2941.7896644036068
 20
1193.4999999999991
 40
3.0000000000000004
 50
90
 51
180
  0
ARC
  8
_0-0_LAY
  6
CONTINUOUS
 62
    2
 10
2941.7896644036068
 20
1212.5
 40
3.0000000000000004
 50
180
 51
270
  0
LINE
  8
_0-0_LAY
  6
CONTINUOUS
 62
    2
 10
2969.7896644036068
 20
1209.5
 11
2941.7896644036068
 21
1209.5
  0
ARC
  8
_0-0_LAY
  6
CONTINUOUS
 62
    2
 10
2969.7896644036068
 20
1212.5
 40
3.0000000000000004
 50
270
 51
0
  0
LINE
  8
_0-0_LAY
  6
CONTINUOUS
 62
    2
 10
2972.7896644036073
 20
1256.5
 11
2972.7896644036073
 21
1212.5
  0
ARC
  8
_0-0_LAY
  6
CONTINUOUS
 62
    2
 10
2969.7896644036068
 20
1256.5
 40
3.0000000000000004
 50
0
 51
90
  0
LINE
  8
_0-0_LAY
  6
CONTINUOUS
 62
    2
 10
2941.7896644036068
 20
1259.5
 11
2969.7896644036068
 21
1259.5
  0
LINE
  8
_0-0_LAY
  6
CONTINUOUS
 62
    2
 10
2938.7896644036068
 20
1256.5
 11
2938.7896644036068
 21
1212.5
  0
ARC
  8
_0-0_LAY
  6
CONTINUOUS
 62
    2
 10
2941.7896644036068
 20
1256.5
 40
3.0000000000000004
 50
90
 51
180
  0
ARC
  8
_0-0_LAY
  6
CONTINUOUS
 62
    2
 10
2941.7896644036068
 20
1275.5
 40
3.0000000000000004
 50
180
 51
270
  0
LINE
  8
_0-0_LAY
  6
CONTINUOUS
 62
    2
 10
2969.7896644036068
 20
1272.5
 11
2941.7896644036068
 21
1272.5
  0
ARC
  8
_0-0_LAY
  6
CONTINUOUS
 62
    2
 10
2969.7896644036068
 20
1275.5
 40
3.0000000000000004
 50
270
 51
0
  0
ARC
  8
_0-0_LAY
  6
CONTINUOUS
 62
    2
 10
2969.7896644036068
 20
1280.650757595082
 40
3.0000000000000004
 50
0
 51
44.999999999990543
  0
ARC
  8
_0-0_LAY
  6
CONTINUOUS
 62
    2
 10
2952.4863635447077
 20
1297.9540584539809
 40
3.0000000000000004
 50
44.999999999990543
 51
135.00000000000941
  0
LINE
  8
_0-0_LAY
  6
CONTINUOUS
 62
    2
 10
2938.7896644036068
 20
1287.25735931288
 11
2938.7896644036068
 21
1275.5
  0
ARC
  8
_0-0_LAY
  6
CONTINUOUS
 62
    2
 10
2941.7896644036068
 20
1287.25735931288
 40
3.0000000000000004
 50
135.00000000000941
 51
180
  0
ARC
  8
_0-0_LAY
  6
CONTINUOUS
 62
    2
 10
2967.335605949625
 20
1312.8033008588989
 40
3.0000000000000004
 50
135.00000000000941
 51
224.99999999999051
  0
ARC
  8
_0-0_LAY
  6
CONTINUOUS
 62
    2
 10
2989.7896644036059
 20
1295.5
 40
3.0000000000000004
 50
270
 51
0
  0
LINE
  8
_0-0_LAY
  6
CONTINUOUS
 62
    2
 10
2984.6389068085241
 20
1292.5
 11
2989.7896644036059
 21
1292.5
  0
LINE
  8
_0-0_LAY
  6
CONTINUOUS
 62
    2
 10
2982.5175864649659
 20
1293.37867965644
 11
2965.2142856060659
 21
1310.6819805153391
  0
ARC
  8
_0-0_LAY
  6
CONTINUOUS
 62
    2
 10
2984.6389068085241
 20
1295.5
 40
3.0000000000000004
 50
224.99999999999048
 51
270
  0
LINE
  8
_0-0_LAY
  6
CONTINUOUS
 62
    2
 10
2992.7896644036059
 20
1323.5
 11
2992.7896644036059
 21
1295.5
  0
ARC
  8
_0-0_LAY
  6
CONTINUOUS
 62
    2
 10
2989.7896644036059
 20
1323.5
 40
3.0000000000000004
 50
0
 51
90
  0
LINE
  8
_0-0_LAY
  6
CONTINUOUS
 62
    2
 10
2978.0323050907259
 20
1326.5
 11
2989.7896644036059
 21
1326.5
  0
LINE
  8
_0-0_LAY
  6
CONTINUOUS
 62
    2
 10
2975.9109847471668
 20
1325.6213203435591
 11
2965.2142856060659
 21
1314.924621202458
  0
ARC
  8
_0-0_LAY
  6
CONTINUOUS
 62
    2
 10
2978.0323050907259
 20
1323.5
 40
3.0000000000000004
 50
90
 51
135.00000000000941
  0
ARC
  8
_0-0_LAY
  6
CONTINUOUS
 62
    2
 10
3008.7896644036068
 20
1323.5
 40
3.0000000000000004
 50
90
 51
180
  0
LINE
  8
_0-0_LAY
  6
CONTINUOUS
 62
    2
 10
3005.7896644036059
 20
1295.5
 11
3005.7896644036059
 21
1323.5
  0
ARC
  8
_0-0_LAY
  6
CONTINUOUS
 62
    2
 10
3008.7896644036068
 20
1295.5
 40
3.0000000000000004
 50
180
 51
270
  0
LINE
  8
_0-0_LAY
  6
CONTINUOUS
 62
    2
 10
3052.7896644036073
 20
1326.5
 11
3008.7896644036068
 21
1326.5
  0
ARC
  8
_0-0_LAY
  6
CONTINUOUS
 62
    2
 10
3052.7896644036073
 20
1323.5
 40
3.0000000000000004
 50
0
 51
90
  0
LINE
  8
_0-0_LAY
  6
CONTINUOUS
 62
    2
 10
3055.7896644036059
 20
1295.5
 11
3055.7896644036059
 21
1323.5
  0
LINE
  8
_0-0_LAY
  6
CONTINUOUS
 62
    2
 10
3052.7896644036073
 20
1292.5
 11
3008.7896644036068
 21
1292.5
  0
ARC
  8
_0-0_LAY
  6
CONTINUOUS
 62
    2
 10
3052.7896644036073
 20
1295.5
 40
3.0000000000000004
 50
270
 51
0
  0
ARC
  8
_0-0_LAY
  6
CONTINUOUS
 62
    2
 10
3071.7896644036068
 20
1295.5
 40
3.0000000000000004
 50
180
 51
270
  0
LINE
  8
_0-0_LAY
  6
CONTINUOUS
 62
    2
 10
3068.7896644036068
 20
1323.5
 11
3068.7896644036068
 21
1295.5
  0
ARC
  8
_0-0_LAY
  6
CONTINUOUS
 62
    2
 10
3071.7896644036068
 20
1323.5
 40
3.0000000000000004
 50
90
 51
180
  0
ARC
  8
_0-0_LAY
  6
CONTINUOUS
 62
    2
 10
3115.7896644036068
 20
1323.5
 40
3.0000000000000004
 50
0
 51
90
  0
LINE
  8
_0-0_LAY
  6
CONTINUOUS
 62
    2
 10
3118.7896644036068
 20
1295.5
 11
3118.7896644036068
 21
1323.5
  0
ARC
  8
_0-0_LAY
  6
CONTINUOUS
 62
    2
 10
3115.7896644036068
 20
1295.5
 40
3.0000000000000004
 50
270
 51
0
  0
ARC
  8
_0-0_LAY
  6
CONTINUOUS
 62
    2
 10
3134.7896644036068
 20
1323.5
 40
3.0000000000000004
 50
90
 51
180
  0
LINE
  8
_0-0_LAY
  6
CONTINUOUS
 62
    2
 10
3176.7896644036068
 20
1326.5
 11
3134.7896644036068
 21
1326.5
  0
ARC
  8
_0-0_LAY
  6
CONTINUOUS
 62
    2
 10
3176.7896644036068
 20
1323.5
 40
3.0000000000000004
 50
0
 51
90
  0
LINE
  8
_0-0_LAY
  6
CONTINUOUS
 62
    2
 10
3179.7896644036068
 20
1295.5
 11
3179.7896644036068
 21
1323.5
  0
ARC
  8
_0-0_LAY
  6
CONTINUOUS
 62
    2
 10
3176.7896644036068
 20
1295.5
 40
3.0000000000000004
 50
270
 51
0
  0
LINE
  8
_0-0_LAY
  6
CONTINUOUS
 62
    2
 10
3134.7896644036068
 20
1292.5
 11
3176.7896644036068
 21
1292.5
  0
LINE
  8
_0-0_LAY
  6
CONTINUOUS
 62
    2
 10
3131.7896644036068
 20
1295.5
 11
3131.7896644036068
 21
1323.5
  0
ARC
  8
_0-0_LAY
  6
CONTINUOUS
 62
    2
 10
3134.7896644036068
 20
1295.5
 40
3.0000000000000004
 50
180
 51
270
  0
ARC
  8
_0-0_LAY
  6
CONTINUOUS
 62
    2
 10
3195.7896644036068
 20
1322.5
 40
3.0000000000000004
 50
90
 51
180
  0
LINE
  8
_0-0_LAY
  6
CONTINUOUS
 62
    2
 10
3192.7896644036073
 20
1296.5
 11
3192.7896644036073
 21
1322.5
  0
ARC
  8
_0-0_LAY
  6
CONTINUOUS
 62
    2
 10
3195.7896644036068
 20
1296.5
 40
3.0000000000000004
 50
180
 51
270
  0
LINE
  8
_0-0_LAY
  6
CONTINUOUS
 62
    2
 10
3209.7896644036068
 20
1293.5
 11
3195.7896644036068
 21
1293.5
  0
ARC
  8
_0-0_LAY
  6
CONTINUOUS
 62
    2
 10
3209.7896644036068
 20
1290.5
 40
3.0000000000000004
 50
0
 51
90
  0
LINE
  8
_0-0_LAY
  6
CONTINUOUS
 62
    2
 10
3209.7896644036068
 20
1325.5
 11
3195.7896644036068
 21
1325.5
  0
ARC
  8
_0-0_LAY
  6
CONTINUOUS
 62
    2
 10
3209.7896644036068
 20
1328.5
 40
3.0000000000000004
 50
270
 51
0
  0
LINE
  8
_0-0_LAY
  6
CONTINUOUS
 62
    2
 10
3212.7896644036064
 20
1337.5
 11
3212.7896644036064
 21
1328.5
  0
LINE
  8
_0-0_LAY
  6
CONTINUOUS
 62
    2
 10
3210.7896644036059
 20
1339.5
 11
3212.7896644036064
 21
1337.5
  0
LINE
  8
_0-0_LAY
  6
CONTINUOUS
 62
    2
 10
3212.7896644036064
 20
1281.5
 11
3212.7896644036064
 21
1290.5
  0
LINE
  8
_0-0_LAY
  6
CONTINUOUS
 62
    2
 10
3212.7896644036064
 20
1281.5
 11
3210.7896644036059
 21
1279.5
  0
LINE
  8
_0-0_LAY
  6
CONTINUOUS
 62
    2
 10
2927.7896644036077
 20
1052.4999999999991
 11
2936.7896644036068
 21
1052.4999999999991
  0
LINE
  8
_0-0_LAY
  6
CONTINUOUS
 62
    2
 10
2927.7896644036077
 20
1052.4999999999991
 11
2925.7896644036068
 21
1054.4999999999991
  0
LINE
  8
_0-0_LAY
  6
CONTINUOUS
 62
    2
 10
2983.7896644036064
 20
1052.4999999999991
 11
2974.7896644036068
 21
1052.4999999999991
  0
LINE
  8
_0-0_LAY
  6
CONTINUOUS
 62
    2
 10
2985.7896644036068
 20
1054.4999999999991
 11
2983.7896644036064
 21
1052.4999999999991
  0
ARC
  8
_0-0_LAY
  6
CONTINUOUS
 62
    2
 10
2942.7896644036073
 20
1069.4999999999991
 40
3.0000000000000004
 50
90
 51
180
  0
LINE
  8
_0-0_LAY
  6
CONTINUOUS
 62
    2
 10
2968.7896644036064
 20
1072.4999999999991
 11
2942.7896644036073
 21
1072.4999999999991
  0
ARC
  8
_0-0_LAY
  6
CONTINUOUS
 62
    2
 10
2968.7896644036064
 20
1069.4999999999991
 40
3.0000000000000004
 50
0
 51
90
  0
LINE
  8
_0-0_LAY
  6
CONTINUOUS
 62
    2
 10
2971.7896644036068
 20
1055.4999999999991
 11
2971.7896644036068
 21
1069.4999999999991
  0
ARC
  8
_0-0_LAY
  6
CONTINUOUS
 62
    2
 10
2974.7896644036068
 20
1055.4999999999991
 40
3.0000000000000004
 50
180
 51
270
  0
LINE
  8
_0-0_LAY
  6
CONTINUOUS
 62
    2
 10
2939.7896644036068
 20
1055.4999999999991
 11
2939.7896644036068
 21
1069.4999999999991
  0
ARC
  8
_0-0_LAY
  6
CONTINUOUS
 62
    2
 10
2936.7896644036068
 20
1055.4999999999991
 40
3.0000000000000004
 50
270
 51
0
  0
ARC
  8
_0-0_LAY
  6
CONTINUOUS
 62
    2
 10
2995.7896644036068
 20
1269.5
 40
10
 50
90
 51
180
  0
ARC
  8
_0-0_LAY
  6
CONTINUOUS
 62
    2
 10
2935.7896644036068
 20
1329.5
 40
10
 50
90
 51
180
  0
LINE
  8
_0-0_LAY
  6
CONTINUOUS
 62
    2
 10
2939.6683440600491
 20
1289.37867965644
 11
2950.3650432011491
 21
1300.0753787975409
  0
LINE
  8
_0-0_LAY
  6
CONTINUOUS
 62
    2
 10
2954.6076838882677
 20
1300.0753787975409
 11
2971.9109847471659
 21
1282.7720779386409
  0
LINE
  8
_0-0_LAY
  6
CONTINUOUS
 62
    2
 10
2972.7896644036073
 20
1280.650757595082
 11
2972.7896644036073
 21
1275.5
  0
TEXT
  8
_0-9__1-9_
 62
    7
 10
2129.8509599258741
 20
2122.7314994525482
 40
16
 41
1
 50
0
  1
58.5
  0
TEXT
  8
_0-9__1-9_
 62
    7
 10
2204.926325557276
 20
2122.5086027814732
 40
16
 41
1
 50
0
  1
58.5
  0
LINE
  8
_0-9__1-9_
  6
CONTINUOUS
 62
    7
 10
-709.99614636463366
 20
1938.0000049999999
 11
-709.99614636463366
 21
1968.0000150000001
  0
LINE
  8
_0-9__1-9_
  6
CONTINUOUS
 62
    7
 10
-769.99615636463432
 20
2058.0000049999999
 11
-769.99615636463432
 21
1998.0000049999999
  0
LINE
  8
_0-9__1-9_
  6
CONTINUOUS
 62
    7
 10
-769.99615636463432
 20
2058.0000049999999
 11
-739.99615636463432
 21
2058.0000049999999
  0
LINE
  8
_0-9__1-9_
  6
CONTINUOUS
 62
    7
 10
-769.99615636463432
 20
1998.0000049999999
 11
-739.99615636463432
 21
1998.0000049999999
  0
LINE
  8
_0-9__1-9_
  6
CONTINUOUS
 62
    7
 10
-709.99614636463366
 20
2118.0000100000002
 11
-314.99618636463401
 21
2118.0000100000002
  0
LINE
  8
_0-9__1-9_
  6
CONTINUOUS
 62
    7
 10
-709.99614636463366
 20
1938.0000049999999
 11
-294.99618636463401
 21
1938.0000049999999
  0
LINE
  8
_0-9__1-9_
  6
CONTINUOUS
 62
    7
 10
-314.99618636463401
 20
1938.0000049999999
 11
-314.99618636463401
 21
1968.0000150000001
  0
LINE
  8
_0-9__1-9_
  6
CONTINUOUS
 62
    7
 10
-264.99616636463406
 20
2058.0000049999999
 11
-234.99616636463406
 21
2058.0000049999999
  0
LINE
  8
_0-9__1-9_
  6
CONTINUOUS
 62
    7
 10
-264.99616636463406
 20
2045.0000049999999
 11
-234.99616636463406
 21
2045.0000049999999
  0
LINE
  8
_0-9__1-9_
  6
CONTINUOUS
 62
    7
 10
-264.99616636463406
 20
2010.9999949999988
 11
-234.99616636463406
 21
2010.9999949999988
  0
LINE
  8
_0-9__1-9_
  6
CONTINUOUS
 62
    7
 10
-264.99616636463406
 20
1998.0000049999999
 11
-234.99616636463406
 21
1998.0000049999999
  0
LINE
  8
_0-9__1-9_
  6
CONTINUOUS
 62
    7
 10
-234.99616636463406
 20
2058.0000049999999
 11
-234.99616636463406
 21
1998.0000049999999
  0
LINE
  8
_0-9__1-9_
  6
CONTINUOUS
 62
    7
 10
-314.99618636463401
 20
2088.0000100000002
 11
-314.99618636463401
 21
2118.0000100000002
  0
LINE
  8
_0-9__1-9_
  6
CONTINUOUS
 62
    7
 10
-689.99618636463401
 20
2088.0000100000002
 11
-689.99618636463401
 21
2118.0000100000002
  0
LINE
  8
_0-9__1-9_
  6
CONTINUOUS
 62
    7
 10
-709.99614636463366
 20
2088.0000100000002
 11
-709.99614636463366
 21
2118.0000100000002
  0
LINE
  8
_0-9__1-9_
  6
CONTINUOUS
 62
    7
 10
-676.99618636463401
 20
2088.0000100000002
 11
-676.99618636463401
 21
2118.0000100000002
  0
LINE
  8
_0-9__1-9_
  6
CONTINUOUS
 62
    7
 10
-616.99618636463401
 20
2088.0000100000002
 11
-616.99618636463401
 21
2118.0000100000002
  0
LINE
  8
_0-9__1-9_
  6
CONTINUOUS
 62
    7
 10
-603.99619636463422
 20
2088.0000100000002
 11
-603.99619636463422
 21
2118.0000100000002
  0
LINE
  8
_0-9__1-9_
  6
CONTINUOUS
 62
    7
 10
-544.99614636463366
 20
2088.0000100000002
 11
-544.99614636463366
 21
2118.0000100000002
  0
LINE
  8
_0-9__1-9_
  6
CONTINUOUS
 62
    7
 10
-531.99620636463396
 20
2088.0000100000002
 11
-531.99620636463396
 21
2118.0000100000002
  0
LINE
  8
_0-9__1-9_
  6
CONTINUOUS
 62
    7
 10
-472.99615636463386
 20
2088.0000100000002
 11
-472.99615636463386
 21
2118.0000100000002
  0
LINE
  8
_0-9__1-9_
  6
CONTINUOUS
 62
    7
 10
-459.99616636463406
 20
2088.0000100000002
 11
-459.99616636463406
 21
2118.0000100000002
  0
LINE
  8
_0-9__1-9_
  6
CONTINUOUS
 62
    7
 10
-400.99616636463406
 20
2088.0000100000002
 11
-400.99616636463406
 21
2118.0000100000002
  0
LINE
  8
_0-9__1-9_
  6
CONTINUOUS
 62
    7
 10
-387.99617636463381
 20
2088.0000100000002
 11
-387.99617636463381
 21
2118.0000100000002
  0
LINE
  8
_0-9__1-9_
  6
CONTINUOUS
 62
    7
 10
-327.99617636463381
 20
2088.0000100000002
 11
-327.99617636463381
 21
2118.0000100000002
  0
LINE
  8
_0-9__1-9_
  6
CONTINUOUS
 62
    7
 10
-573.99619636463422
 20
2058.0000049999999
 11
-573.99619636463422
 21
1998.0000049999999
  0
TEXT
  8
_0-9__1-9_
 62
    7
 10
-532.38879482048787
 20
1942.705225450331
 40
16
 41
1
 50
0
  1
395
  0
TEXT
  8
_0-9__1-9_
 62
    7
 10
-772.61981039634247
 20
2019.0467716114697
 40
16
 41
1
 50
89.999922999997779
  1
60
  0
TEXT
  8
_0-9__1-9_
 62
    7
 10
-712.53958802524039
 20
2123.6952797934678
 40
16
 41
1
 50
0
  1
20
  0
TEXT
  8
_0-9__1-9_
 62
    7
 10
-693.23113687891009
 20
2123.2238307708431
 40
16
 41
1
 50
0
  1
13
  0
TEXT
  8
_0-9__1-9_
 62
    7
 10
-659.48005687891009
 20
2123.2238307708431
 40
16
 41
1
 50
0
  1
60
  0
TEXT
  8
_0-9__1-9_
 62
    7
 10
-583.62039687891047
 20
2122.9024307708419
 40
16
 41
1
 50
0
  1
59
  0
TEXT
  8
_0-9__1-9_
 62
    7
 10
-620.2645068789102
 20
2123.2238307708431
 40
16
 41
1
 50
0
  1
13
  0
TEXT
  8
_0-9__1-9_
 62
    7
 10
-512.2609268789106
 20
2123.2238307708431
 40
16
 41
1
 50
0
  1
59
  0
TEXT
  8
_0-9__1-9_
 62
    7
 10
-443.15148687891042
 20
2122.9024307708419
 40
16
 41
1
 50
0
  1
59
  0
TEXT
  8
_0-9__1-9_
 62
    7
 10
-548.2620868789104
 20
2122.9024307708419
 40
16
 41
1
 50
0
  1
13
  0
TEXT
  8
_0-9__1-9_
 62
    7
 10
-476.25972687890999
 20
2123.2238307708431
 40
16
 41
1
 50
0
  1
13
  0
TEXT
  8
_0-9__1-9_
 62
    7
 10
-404.57878687891071
 20
2123.2238307708431
 40
16
 41
1
 50
0
  1
13
  0
TEXT
  8
_0-9__1-9_
 62
    7
 10
-331.61204687891041
 20
2123.2238307708431
 40
16
 41
1
 50
0
  1
13
  0
TEXT
  8
_0-9__1-9_
 62
    7
 10
-367.93467687891007
 20
2123.2238307708431
 40
16
 41
1
 50
0
  1
60
  0
POINT
  8
_0-9__1-9_
 62
    7
 10
-769.99615636463432
 20
2058.0000049999999
  0
POINT
  8
_0-9__1-9_
 62
    7
 10
-769.99615636463432
 20
1998.0000049999999
  0
POINT
  8
_0-9__1-9_
 62
    7
 10
-573.99619636463422
 20
1998.0000049999999
  0
POINT
  8
_0-9__1-9_
 62
    7
 10
-573.99619636463422
 20
2010.9999949999988
  0
POINT
  8
_0-9__1-9_
 62
    7
 10
-573.99619636463422
 20
2045.0000049999999
  0
POINT
  8
_0-9__1-9_
 62
    7
 10
-573.99619636463422
 20
2058.0000049999999
  0
POINT
  8
_0-9__1-9_
 62
    7
 10
-234.99616636463406
 20
2058.0000049999999
  0
POINT
  8
_0-9__1-9_
 62
    7
 10
-234.99616636463406
 20
2045.0000049999999
  0
POINT
  8
_0-9__1-9_
 62
    7
 10
-234.99616636463406
 20
2010.9999949999988
  0
POINT
  8
_0-9__1-9_
 62
    7
 10
-234.99616636463406
 20
1998.0000049999999
  0
LINE
  8
_0-9__1-9_
  6
CONTINUOUS
 62
    7
 10
-709.99614636463366
 20
1522.0000049999999
 11
-709.99614636463366
 21
1551.9999949999999
  0
LINE
  8
_0-9__1-9_
  6
CONTINUOUS
 62
    7
 10
-769.99615636463432
 20
1642.000004999999
 11
-769.99615636463432
 21
1582.0000049999999
  0
LINE
  8
_0-9__1-9_
  6
CONTINUOUS
 62
    7
 10
-769.99615636463432
 20
1642.000004999999
 11
-739.99614636463366
 21
1642.000004999999
  0
LINE
  8
_0-9__1-9_
  6
CONTINUOUS
 62
    7
 10
-769.99615636463432
 20
1582.0000049999999
 11
-739.99614636463366
 21
1582.0000049999999
  0
LINE
  8
_0-9__1-9_
  6
CONTINUOUS
 62
    7
 10
-214.99619636463399
 20
1522.0000049999999
 11
-214.99619636463399
 21
1551.9999949999999
  0
LINE
  8
_0-9__1-9_
  6
CONTINUOUS
 62
    7
 10
-164.99623636463389
 20
1629.000004999999
 11
-134.99623636463389
 21
1629.000004999999
  0
LINE
  8
_0-9__1-9_
  6
CONTINUOUS
 62
    7
 10
-164.99623636463389
 20
1594.999994999999
 11
-134.99623636463389
 21
1594.999994999999
  0
LINE
  8
_0-9__1-9_
  6
CONTINUOUS
 62
    7
 10
-134.99623636463389
 20
1642.000004999999
 11
-134.99623636463389
 21
1582.0000049999999
  0
LINE
  8
_0-9__1-9_
  6
CONTINUOUS
 62
    7
 10
-214.99619636463399
 20
1679.5000149999989
 11
-214.99619636463399
 21
1709.5000149999989
  0
LINE
  8
_0-9__1-9_
  6
CONTINUOUS
 62
    7
 10
-689.99616636463361
 20
1679.5000149999989
 11
-689.99616636463361
 21
1709.5000149999989
  0
LINE
  8
_0-9__1-9_
  6
CONTINUOUS
 62
    7
 10
-709.99614636463366
 20
1679.5000149999989
 11
-709.99614636463366
 21
1709.5000149999989
  0
LINE
  8
_0-9__1-9_
  6
CONTINUOUS
 62
    7
 10
-676.99615636463386
 20
1679.5000149999989
 11
-676.99615636463386
 21
1709.5000149999989
  0
LINE
  8
_0-9__1-9_
  6
CONTINUOUS
 62
    7
 10
-623.99615636463386
 20
1679.5000149999989
 11
-623.99615636463386
 21
1709.5000149999989
  0
LINE
  8
_0-9__1-9_
  6
CONTINUOUS
 62
    7
 10
-709.99614636463366
 20
1522.0000049999999
 11
-194.99619636463422
 21
1522.0000049999999
  0
LINE
  8
_0-9__1-9_
  6
CONTINUOUS
 62
    7
 10
-709.99614636463366
 20
1709.5000149999989
 11
-214.99619636463399
 21
1709.5000149999989
  0
LINE
  8
_0-9__1-9_
  6
CONTINUOUS
 62
    7
 10
-610.99616636463406
 20
1679.5000149999989
 11
-610.99616636463406
 21
1709.5000149999989
  0
LINE
  8
_0-9__1-9_
  6
CONTINUOUS
 62
    7
 10
-580.99616636463406
 20
1582.0000049999999
 11
-580.99616636463406
 21
1642.000004999999
  0
LINE
  8
_0-9__1-9_
  6
CONTINUOUS
 62
    7
 10
-557.99616636463406
 20
1679.5000149999989
 11
-557.99616636463406
 21
1709.5000149999989
  0
LINE
  8
_0-9__1-9_
  6
CONTINUOUS
 62
    7
 10
-544.99616636463406
 20
1679.5000149999989
 11
-544.99616636463406
 21
1709.5000149999989
  0
LINE
  8
_0-9__1-9_
  6
CONTINUOUS
 62
    7
 10
-491.99614636463366
 20
1679.5000149999989
 11
-491.99614636463366
 21
1709.5000149999989
  0
LINE
  8
_0-9__1-9_
  6
CONTINUOUS
 62
    7
 10
-478.99615636463386
 20
1679.5000149999989
 11
-478.99615636463386
 21
1709.5000149999989
  0
LINE
  8
_0-9__1-9_
  6
CONTINUOUS
 62
    7
 10
-425.99614636463366
 20
1679.5000149999989
 11
-425.99614636463366
 21
1709.5000149999989
  0
LINE
  8
_0-9__1-9_
  6
CONTINUOUS
 62
    7
 10
-412.99615636463386
 20
1679.5000149999989
 11
-412.99615636463386
 21
1709.5000149999989
  0
LINE
  8
_0-9__1-9_
  6
CONTINUOUS
 62
    7
 10
-359.99613636463414
 20
1679.5000149999989
 11
-359.99613636463414
 21
1709.5000149999989
  0
LINE
  8
_0-9__1-9_
  6
CONTINUOUS
 62
    7
 10
-346.99613636463391
 20
1679.5000149999989
 11
-346.99613636463391
 21
1709.5000149999989
  0
LINE
  8
_0-9__1-9_
  6
CONTINUOUS
 62
    7
 10
-293.99611636463396
 20
1679.5000149999989
 11
-293.99611636463396
 21
1709.5000149999989
  0
LINE
  8
_0-9__1-9_
  6
CONTINUOUS
 62
    7
 10
-280.99611636463419
 20
1679.5000149999989
 11
-280.99611636463419
 21
1709.5000149999989
  0
LINE
  8
_0-9__1-9_
  6
CONTINUOUS
 62
    7
 10
-227.99619636463444
 20
1679.5000149999989
 11
-227.99619636463444
 21
1709.5000149999989
  0
TEXT
  8
_0-9__1-9_
 62
    7
 10
-772.61981039634247
 20
1602.2708485264948
 40
16
 41
1
 50
89.999922999997779
  1
60
  0
TEXT
  8
_0-9__1-9_
 62
    7
 10
-713.99677702901135
 20
1714.4811867008821
 40
16
 41
1
 50
0
  1
20
  0
TEXT
  8
_0-9__1-9_
 62
    7
 10
-694.46592406009677
 20
1714.401050404198
 40
16
 41
1
 50
0
  1
13
  0
TEXT
  8
_0-9__1-9_
 62
    7
 10
-628.49923406009657
 20
1714.401050404198
 40
16
 41
1
 50
0
  1
13
  0
TEXT
  8
_0-9__1-9_
 62
    7
 10
-660.71480406009641
 20
1714.401050404198
 40
16
 41
1
 50
0
  1
53
  0
TEXT
  8
_0-9__1-9_
 62
    7
 10
-562.49923406009611
 20
1714.401050404198
 40
16
 41
1
 50
0
  1
13
  0
TEXT
  8
_0-9__1-9_
 62
    7
 10
-594.7148140600957
 20
1714.401050404198
 40
16
 41
1
 50
0
  1
53
  0
TEXT
  8
_0-9__1-9_
 62
    7
 10
-496.49921406009616
 20
1714.401050404198
 40
16
 41
1
 50
0
  1
13
  0
TEXT
  8
_0-9__1-9_
 62
    7
 10
-528.71479406009621
 20
1714.401050404198
 40
16
 41
1
 50
0
  1
53
  0
TEXT
  8
_0-9__1-9_
 62
    7
 10
-430.49922406009637
 20
1714.401050404198
 40
16
 41
1
 50
0
  1
13
  0
TEXT
  8
_0-9__1-9_
 62
    7
 10
-462.71479406009666
 20
1714.401050404198
 40
16
 41
1
 50
0
  1
53
  0
TEXT
  8
_0-9__1-9_
 62
    7
 10
-364.49920406009687
 20
1714.401050404198
 40
16
 41
1
 50
0
  1
13
  0
TEXT
  8
_0-9__1-9_
 62
    7
 10
-396.71477406009626
 20
1714.401050404198
 40
16
 41
1
 50
0
  1
53
  0
TEXT
  8
_0-9__1-9_
 62
    7
 10
-298.49918406009601
 20
1714.401050404198
 40
16
 41
1
 50
0
  1
13
  0
TEXT
  8
_0-9__1-9_
 62
    7
 10
-330.71476406009606
 20
1714.401050404198
 40
16
 41
1
 50
0
  1
53
  0
TEXT
  8
_0-9__1-9_
 62
    7
 10
-267.3029640600962
 20
1714.4052604041981
 40
16
 41
1
 50
0
  1
53
  0
TEXT
  8
_0-9__1-9_
 62
    7
 10
-232.28795406009658
 20
1714.4052604041981
 40
16
 41
1
 50
0
  1
13
  0
TEXT
  8
_0-9__1-9_
 62
    7
 10
-484.56805636463378
 20
1527.524757094558
 40
16
 41
1
 50
0
  1
495
  0
POINT
  8
_0-9__1-9_
 62
    7
 10
-709.99614636463366
 20
1522.0000049999999
  0
POINT
  8
_0-9__1-9_
 62
    7
 10
-769.99615636463432
 20
1642.000004999999
  0
POINT
  8
_0-9__1-9_
 62
    7
 10
-769.99615636463432
 20
1582.0000049999999
  0
POINT
  8
_0-9__1-9_
 62
    7
 10
-134.99623636463389
 20
1642.000004999999
  0
POINT
  8
_0-9__1-9_
 62
    7
 10
-134.99623636463389
 20
1582.0000049999999
  0
POINT
  8
_0-9__1-9_
 62
    7
 10
-214.99619636463399
 20
1522.0000049999999
  0
POINT
  8
_0-9__1-9_
 62
    7
 10
-580.99616636463406
 20
1642.000004999999
  0
POINT
  8
_0-9__1-9_
 62
    7
 10
-580.99616636463406
 20
1629.000004999999
  0
POINT
  8
_0-9__1-9_
 62
    7
 10
-580.99616636463406
 20
1594.999994999999
  0
POINT
  8
_0-9__1-9_
 62
    7
 10
-580.99616636463406
 20
1582.0000049999999
  0
LINE
  8
_0-9__1-9_
  6
CONTINUOUS
 62
    7
 10
-769.99614636463366
 20
1166
 11
-769.99614636463366
 21
1226
  0
LINE
  8
_0-9__1-9_
  6
CONTINUOUS
 62
    7
 10
-769.99614636463366
 20
1226
 11
-739.99614636463366
 21
1226
  0
LINE
  8
_0-9__1-9_
  6
CONTINUOUS
 62
    7
 10
-709.99614636463275
 20
1105.5999899999979
 11
-709.99614636463275
 21
1135.5999899999979
  0
LINE
  8
_0-9__1-9_
  6
CONTINUOUS
 62
    7
 10
-739.99614636463366
 20
1166
 11
-769.99614636463366
 21
1166
  0
LINE
  8
_0-9__1-9_
  6
CONTINUOUS
 62
    7
 10
-569.15208636463376
 20
1166
 11
-569.15208636463376
 21
1226
  0
LINE
  8
_0-9__1-9_
  6
CONTINUOUS
 62
    7
 10
-49.996146364634114
 20
1166
 11
-49.996146364634114
 21
1226
  0
LINE
  8
_0-9__1-9_
  6
CONTINUOUS
 62
    7
 10
-79.996146364633887
 20
1166
 11
-49.996146364634114
 21
1166
  0
LINE
  8
_0-9__1-9_
  6
CONTINUOUS
 62
    7
 10
-79.996146364633887
 20
1208.99992
 11
-49.996146364634114
 21
1208.99992
  0
LINE
  8
_0-9__1-9_
  6
CONTINUOUS
 62
    7
 10
-79.996146364633887
 20
1182.9999800000001
 11
-49.996146364634114
 21
1182.9999800000001
  0
LINE
  8
_0-9__1-9_
  6
CONTINUOUS
 62
    7
 10
-79.996146364633887
 20
1226
 11
-49.996146364634114
 21
1226
  0
LINE
  8
_0-9__1-9_
  6
CONTINUOUS
 62
    7
 10
-109.99614636463298
 20
1105.5999900000029
 11
-709.99614636463275
 21
1105.5999899999979
  0
LINE
  8
_0-9__1-9_
  6
CONTINUOUS
 62
    7
 10
-129.99614636463298
 20
1105.5999900000029
 11
-129.99614636463298
 21
1135.5999900000029
  0
TEXT
  8
_0-9__1-9_
 62
    7
 10
-772.84472832489973
 20
1185.8351649697306
 40
16
 41
1
 50
89.999922999997779
  1
60
  0
TEXT
  8
_0-9__1-9_
 62
    7
 10
-437.15176627145956
 20
1110.8915936657959
 40
16
 41
1
 50
0
  1
580
  0
LINE
  8
_0-9__1-9_
  6
CONTINUOUS
 62
    7
 10
-709.9961463646332
 20
1255.32466
 11
-709.9961463646332
 21
1286.19795
  0
LINE
  8
_0-9__1-9_
  6
CONTINUOUS
 62
    7
 10
-689.99614636463366
 20
1255.32466
 11
-689.99614636463366
 21
1286.19795
  0
LINE
  8
_0-9__1-9_
  6
CONTINUOUS
 62
    7
 10
-676.99614636463366
 20
1255.32466
 11
-676.99614636463366
 21
1286.19795
  0
LINE
  8
_0-9__1-9_
  6
CONTINUOUS
 62
    7
 10
-620.49614636463366
 20
1255.32466
 11
-620.49614636463366
 21
1286.19795
  0
LINE
  8
_0-9__1-9_
  6
CONTINUOUS
 62
    7
 10
-607.49614636463366
 20
1255.32466
 11
-607.49614636463366
 21
1286.19795
  0
TEXT
  8
_0-9__1-9_
 62
    7
 10
-623.70444989733096
 20
1290.97528238476
 40
16
 41
1
 50
0
  1
13
  0
LINE
  8
_0-9__1-9_
  6
CONTINUOUS
 62
    7
 10
-552.49614636463366
 20
1255.32466
 11
-552.49614636463366
 21
1286.19795
  0
LINE
  8
_0-9__1-9_
  6
CONTINUOUS
 62
    7
 10
-539.49614636463366
 20
1255.32466
 11
-539.49614636463366
 21
1286.19795
  0
TEXT
  8
_0-9__1-9_
 62
    7
 10
-555.70444989733096
 20
1290.97528238476
 40
16
 41
1
 50
0
  1
13
  0
LINE
  8
_0-9__1-9_
  6
CONTINUOUS
 62
    7
 10
-484.49614636463366
 20
1255.32466
 11
-484.49614636463366
 21
1286.19795
  0
LINE
  8
_0-9__1-9_
  6
CONTINUOUS
 62
    7
 10
-471.49614636463366
 20
1255.32466
 11
-471.49614636463366
 21
1286.19795
  0
TEXT
  8
_0-9__1-9_
 62
    7
 10
-487.70444989733141
 20
1290.97528238476
 40
16
 41
1
 50
0
  1
13
  0
LINE
  8
_0-9__1-9_
  6
CONTINUOUS
 62
    7
 10
-416.49614636463366
 20
1255.32466
 11
-416.49614636463366
 21
1286.19795
  0
LINE
  8
_0-9__1-9_
  6
CONTINUOUS
 62
    7
 10
-403.49614636463366
 20
1255.32466
 11
-403.49614636463366
 21
1286.19795
  0
TEXT
  8
_0-9__1-9_
 62
    7
 10
-419.70444989733141
 20
1290.97528238476
 40
16
 41
1
 50
0
  1
13
  0
LINE
  8
_0-9__1-9_
  6
CONTINUOUS
 62
    7
 10
-348.49614636463366
 20
1255.32466
 11
-348.49614636463366
 21
1286.19795
  0
LINE
  8
_0-9__1-9_
  6
CONTINUOUS
 62
    7
 10
-335.49614636463366
 20
1255.32466
 11
-335.49614636463366
 21
1286.19795
  0
TEXT
  8
_0-9__1-9_
 62
    7
 10
-351.70444989733096
 20
1290.97528238476
 40
16
 41
1
 50
0
  1
13
  0
LINE
  8
_0-9__1-9_
  6
CONTINUOUS
 62
    7
 10
-280.49614636463366
 20
1255.32466
 11
-280.49614636463366
 21
1286.19795
  0
LINE
  8
_0-9__1-9_
  6
CONTINUOUS
 62
    7
 10
-267.49614636463389
 20
1255.32466
 11
-267.49614636463389
 21
1286.19795
  0
TEXT
  8
_0-9__1-9_
 62
    7
 10
-283.70444989733096
 20
1290.97528238476
 40
16
 41
1
 50
0
  1
13
  0
LINE
  8
_0-9__1-9_
  6
CONTINUOUS
 62
    7
 10
-212.49614636463389
 20
1255.32466
 11
-212.49614636463389
 21
1286.19795
  0
LINE
  8
_0-9__1-9_
  6
CONTINUOUS
 62
    7
 10
-199.49614636463366
 20
1255.32466
 11
-199.49614636463366
 21
1286.19795
  0
TEXT
  8
_0-9__1-9_
 62
    7
 10
-215.70444989733096
 20
1290.97528238476
 40
16
 41
1
 50
0
  1
13
  0
LINE
  8
_0-9__1-9_
  6
CONTINUOUS
 62
    7
 10
-142.99614636463366
 20
1255.32466
 11
-142.99614636463366
 21
1286.19795
  0
LINE
  8
_0-9__1-9_
  6
CONTINUOUS
 62
    7
 10
-129.99614636463389
 20
1255.32466
 11
-129.99614636463389
 21
1286.19795
  0
TEXT
  8
_0-9__1-9_
 62
    7
 10
-146.2788893125005
 20
1291.272065472657
 40
16
 41
1
 50
0
  1
13
  0
TEXT
  8
_0-9__1-9_
 62
    7
 10
-711.36129663636302
 20
1290.5367774757531
 40
16
 41
1
 50
0
  1
20
  0
TEXT
  8
_0-9__1-9_
 62
    7
 10
-53.584983838733933
 20
1208.7600131638819
 40
16
 41
1
 50
90
  1
17
  0
TEXT
  8
_0-9__1-9_
 62
    7
 10
-53.344443473377851
 20
1165.2222070344139
 40
16
 41
1
 50
90
  1
17
  0
POINT
  8
_0-9__1-9_
 62
    7
 10
-569.15208636463376
 20
1226
  0
POINT
  8
_0-9__1-9_
 62
    7
 10
-569.15208636463376
 20
1212.9999800000001
  0
POINT
  8
_0-9__1-9_
 62
    7
 10
-129.99614636463298
 20
1105.5999900000029
  0
POINT
  8
_0-9__1-9_
 62
    7
 10
-569.15208636463376
 20
1166
  0
POINT
  8
_0-9__1-9_
 62
    7
 10
-569.15208636463376
 20
1179
  0
POINT
  8
_0-9__1-9_
 62
    7
 10
-769.99614636463366
 20
1226
  0
POINT
  8
_0-9__1-9_
 62
    7
 10
-769.99614636463366
 20
1166
  0
POINT
  8
_0-9__1-9_
 62
    7
 10
-709.99614636463275
 20
1105.5999899999979
  0
LINE
  8
_0-9__1-9_
  6
CONTINUOUS
 62
    7
 10
-769.99614636463366
 20
750.00004999999987
 11
-769.99614636463366
 21
810.00004999999987
  0
LINE
  8
_0-9__1-9_
  6
CONTINUOUS
 62
    7
 10
-94.996086364634039
 20
689.60006999999973
 11
-709.9961463646332
 21
689.60006999999973
  0
LINE
  8
_0-9__1-9_
  6
CONTINUOUS
 62
    7
 10
-34.996266364634266
 20
750.00004999999987
 11
-34.996266364634266
 21
810.00004999999987
  0
LINE
  8
_0-9__1-9_
  6
CONTINUOUS
 62
    7
 10
-64.996266364633811
 20
750.00004999999987
 11
-34.996266364634266
 21
750.00004500000091
  0
LINE
  8
_0-9__1-9_
  6
CONTINUOUS
 62
    7
 10
-769.99614636463366
 20
810.00004999999987
 11
-739.99614636463366
 21
810.00004999999987
  0
LINE
  8
_0-9__1-9_
  6
CONTINUOUS
 62
    7
 10
-408.99690636463356
 20
839.99995999999896
 11
-408.99690636463356
 21
869.99995999999987
  0
LINE
  8
_0-9__1-9_
  6
CONTINUOUS
 62
    7
 10
-465.99689636463381
 20
839.99995999999896
 11
-465.99689636463381
 21
869.99995999999987
  0
LINE
  8
_0-9__1-9_
  6
CONTINUOUS
 62
    7
 10
-709.9961463646332
 20
689.60006999999973
 11
-709.9961463646332
 21
719.60006999999996
  0
LINE
  8
_0-9__1-9_
  6
CONTINUOUS
 62
    7
 10
-114.99608636463404
 20
689.60006999999973
 11
-114.99608636463404
 21
719.60006999999996
  0
LINE
  8
_0-9__1-9_
  6
CONTINUOUS
 62
    7
 10
-478.99688636463316
 20
839.99995999999896
 11
-478.99688636463316
 21
869.99995999999987
  0
LINE
  8
_0-9__1-9_
  6
CONTINUOUS
 62
    7
 10
-618.99606636463386
 20
839.99995999999896
 11
-618.99606636463386
 21
869.99995999999987
  0
LINE
  8
_0-9__1-9_
  6
CONTINUOUS
 62
    7
 10
-255.99684636463371
 20
839.99995999999896
 11
-255.99684636463371
 21
869.99995999999987
  0
LINE
  8
_0-9__1-9_
  6
CONTINUOUS
 62
    7
 10
-114.99608636463404
 20
869.99995999999987
 11
-114.99608636463404
 21
839.99995999999896
  0
LINE
  8
_0-9__1-9_
  6
CONTINUOUS
 62
    7
 10
-605.99686636463366
 20
839.99995999999896
 11
-605.99686636463366
 21
869.99995999999987
  0
LINE
  8
_0-9__1-9_
  6
CONTINUOUS
 62
    7
 10
-674.49588636463295
 20
839.99995999999896
 11
-674.49588636463295
 21
869.99995999999987
  0
LINE
  8
_0-9__1-9_
  6
CONTINUOUS
 62
    7
 10
-268.99699636463379
 20
839.99995999999896
 11
-268.99699636463379
 21
869.99995999999987
  0
LINE
  8
_0-9__1-9_
  6
CONTINUOUS
 62
    7
 10
-325.99693636463348
 20
839.99995999999896
 11
-325.99693636463348
 21
869.99995999999987
  0
LINE
  8
_0-9__1-9_
  6
CONTINUOUS
 62
    7
 10
-64.996266364633811
 20
792.99997000000008
 11
-34.996266364634266
 21
792.99997000000008
  0
LINE
  8
_0-9__1-9_
  6
CONTINUOUS
 62
    7
 10
-732.12865536463369
 20
750.00004999999987
 11
-769.99614636463366
 21
750.00004999999987
  0
LINE
  8
_0-9__1-9_
  6
CONTINUOUS
 62
    7
 10
-64.996266364633811
 20
767.00002999999992
 11
-34.996266364634266
 21
767.00002999999992
  0
LINE
  8
_0-9__1-9_
  6
CONTINUOUS
 62
    7
 10
-64.996266364633811
 20
810.00004999999987
 11
-34.996266364634266
 21
810.00004999999987
  0
LINE
  8
_0-9__1-9_
  6
CONTINUOUS
 62
    7
 10
-548.99687636463386
 20
839.99995999999896
 11
-548.99687636463386
 21
869.99995999999987
  0
LINE
  8
_0-9__1-9_
  6
CONTINUOUS
 62
    7
 10
-395.99691636463376
 20
839.99995999999896
 11
-395.99691636463376
 21
869.99995999999987
  0
LINE
  8
_0-9__1-9_
  6
CONTINUOUS
 62
    7
 10
-185.99686636463366
 20
839.99995999999896
 11
-185.99686636463366
 21
869.99995999999987
  0
LINE
  8
_0-9__1-9_
  6
CONTINUOUS
 62
    7
 10
-535.99687636463386
 20
839.99995999999896
 11
-535.99687636463386
 21
869.99995999999987
  0
LINE
  8
_0-9__1-9_
  6
CONTINUOUS
 62
    7
 10
-338.99687636463409
 20
839.99995999999896
 11
-338.99687636463409
 21
869.99995999999987
  0
LINE
  8
_0-9__1-9_
  6
CONTINUOUS
 62
    7
 10
-198.99685636463346
 20
839.99995999999896
 11
-198.99685636463346
 21
869.99995999999987
  0
LINE
  8
_0-9__1-9_
  6
CONTINUOUS
 62
    7
 10
-689.99601636463331
 20
869.99995999999987
 11
-689.99601636463331
 21
839.99995999999896
  0
LINE
  8
_0-9__1-9_
  6
CONTINUOUS
 62
    7
 10
-569.15208636463376
 20
750.00004999999987
 11
-569.15208636463376
 21
810.00004999999987
  0
LINE
  8
_0-9__1-9_
  6
CONTINUOUS
 62
    7
 10
-709.9961463646332
 20
839.99995999999896
 11
-709.9961463646332
 21
869.99995999999987
  0
LINE
  8
_0-9__1-9_
  6
CONTINUOUS
 62
    7
 10
-130.49710636463351
 20
839.99995999999896
 11
-130.49710636463351
 21
869.99995999999987
  0
TEXT
  8
_0-9__1-9_
 62
    7
 10
-551.81697455265339
 20
874.522344133459
 40
16
 41
1
 50
0
  1
13
  0
TEXT
  8
_0-9__1-9_
 62
    7
 10
-480.86006503312774
 20
874.70924703154196
 40
16
 41
1
 50
0
  1
13
  0
TEXT
  8
_0-9__1-9_
 62
    7
 10
-711.19260133339003
 20
874.522344133459
 40
16
 41
1
 50
0
  1
20
  0
TEXT
  8
_0-9__1-9_
 62
    7
 10
-621.37922567879377
 20
874.522344133459
 40
16
 41
1
 50
0
  1
13
  0
TEXT
  8
_0-9__1-9_
 62
    7
 10
-376.84341785048127
 20
874.70924703154196
 40
16
 41
1
 50
0
  1
57
  0
TEXT
  8
_0-9__1-9_
 62
    7
 10
-411.07412225741837
 20
874.70924703154196
 40
16
 41
1
 50
0
  1
13
  0
TEXT
  8
_0-9__1-9_
 62
    7
 10
-445.94844831523778
 20
874.70924703154196
 40
16
 41
1
 50
0
  1
57
  0
TEXT
  8
_0-9__1-9_
 62
    7
 10
-236.69319754303524
 20
874.70924703154196
 40
16
 41
1
 50
0
  1
57
  0
TEXT
  8
_0-9__1-9_
 62
    7
 10
-271.22802267192537
 20
874.70924703154196
 40
16
 41
1
 50
0
  1
13
  0
TEXT
  8
_0-9__1-9_
 62
    7
 10
-306.22799267192431
 20
874.70924703154196
 40
16
 41
1
 50
0
  1
57
  0
TEXT
  8
_0-9__1-9_
 62
    7
 10
-201.2311407056709
 20
874.70924703154196
 40
16
 41
1
 50
0
  1
13
  0
TEXT
  8
_0-9__1-9_
 62
    7
 10
-341.53572918129112
 20
874.70924703154196
 40
16
 41
1
 50
0
  1
13
  0
TEXT
  8
_0-9__1-9_
 62
    7
 10
-439.04708293704925
 20
694.48838809647236
 40
16
 41
1
 50
0
  1
 595
  0
TEXT
  8
_0-9__1-9_
 62
    7
 10
-772.92411616319623
 20
769.65969832630344
 40
16
 41
1
 50
89.999922999997779
  1
60
  0
TEXT
  8
_0-9__1-9_
 62
    7
 10
-668.66031266554819
 20
874.522344133459
 40
16
 41
1
 50
0
  1
55.5
  0
TEXT
  8
_0-9__1-9_
 62
    7
 10
-39.789734623720278
 20
749.11314511918408
 40
16
 41
1
 50
90
  1
17
  0
POINT
  8
_0-9__1-9_
 62
    7
 10
-34.996266364634266
 20
750.00004500000091
  0
POINT
  8
_0-9__1-9_
 62
    7
 10
-34.996266364634266
 20
792.99997000000008
  0
POINT
  8
_0-9__1-9_
 62
    7
 10
-569.15208636463376
 20
810.00004999999987
  0
POINT
  8
_0-9__1-9_
 62
    7
 10
-569.15208636463376
 20
797.00010999999995
  0
POINT
  8
_0-9__1-9_
 62
    7
 10
-569.15208636463376
 20
763.00004999999987
  0
POINT
  8
_0-9__1-9_
 62
    7
 10
-569.15208636463376
 20
750.00004999999987
  0
POINT
  8
_0-9__1-9_
 62
    7
 10
-769.99614636463366
 20
810.00004999999987
  0
POINT
  8
_0-9__1-9_
 62
    7
 10
-769.99614636463366
 20
750.00004999999987
  0
POINT
  8
_0-9__1-9_
 62
    7
 10
-709.9961463646332
 20
689.60006999999973
  0
POINT
  8
_0-9__1-9_
 62
    7
 10
-114.99608636463404
 20
689.60006999999973
  0
LINE
  8
_0-9__1-9_
  6
CONTINUOUS
 62
    7
 10
-769.99614636463366
 20
334
 11
-769.99614636463366
 21
394.0000100000002
  0
LINE
  8
_0-9__1-9_
  6
CONTINUOUS
 62
    7
 10
-739.99614636463366
 20
394.0000100000002
 11
-769.99614636463366
 21
394.0000100000002
  0
LINE
  8
_0-9__1-9_
  6
CONTINUOUS
 62
    7
 10
-739.99614636463366
 20
333.99999500000058
 11
-769.99614636463366
 21
334
  0
LINE
  8
_0-9__1-9_
  6
CONTINUOUS
 62
    7
 10
235.00387363536584
 20
394.0000100000002
 11
265.00387363536697
 21
394.0000100000002
  0
LINE
  8
_0-9__1-9_
  6
CONTINUOUS
 62
    7
 10
235.00387363536584
 20
377.00000000000023
 11
265.00387363536697
 21
377.00000000000023
  0
LINE
  8
_0-9__1-9_
  6
CONTINUOUS
 62
    7
 10
235.00387363536584
 20
351.00000000000023
 11
265.00387363536697
 21
351.00000000000023
  0
LINE
  8
_0-9__1-9_
  6
CONTINUOUS
 62
    7
 10
235.00387363536584
 20
333.99999500000058
 11
265.00387363536697
 21
334
  0
LINE
  8
_0-9__1-9_
  6
CONTINUOUS
 62
    7
 10
-709.99615636463341
 20
274
 11
205.00387363536697
 21
274
  0
LINE
  8
_0-9__1-9_
  6
CONTINUOUS
 62
    7
 10
-709.99615636463341
 20
274
 11
-709.99615636463341
 21
304
  0
LINE
  8
_0-9__1-9_
  6
CONTINUOUS
 62
    7
 10
185.00387363536697
 20
274
 11
185.00387363536697
 21
304
  0
LINE
  8
_0-9__1-9_
  6
CONTINUOUS
 62
    7
 10
-709.99615636463341
 20
454.00004999999987
 11
-709.99615636463341
 21
424.00004999999987
  0
LINE
  8
_0-9__1-9_
  6
CONTINUOUS
 62
    7
 10
-689.99615636463341
 20
454.00004999999987
 11
-689.99615636463341
 21
424.00004999999987
  0
LINE
  8
_0-9__1-9_
  6
CONTINUOUS
 62
    7
 10
-675.99615636463341
 20
454.00004999999987
 11
-675.99615636463341
 21
424.00004999999987
  0
LINE
  8
_0-9__1-9_
  6
CONTINUOUS
 62
    7
 10
-618.24617636463381
 20
454.00004999999987
 11
-618.24617636463381
 21
424.00004999999987
  0
LINE
  8
_0-9__1-9_
  6
CONTINUOUS
 62
    7
 10
-604.24617636463336
 20
454.00004999999987
 11
-604.24617636463336
 21
424.00004999999987
  0
LINE
  8
_0-9__1-9_
  6
CONTINUOUS
 62
    7
 10
-546.4960963646331
 20
454.00004999999987
 11
-546.4960963646331
 21
424.00004999999987
  0
LINE
  8
_0-9__1-9_
  6
CONTINUOUS
 62
    7
 10
-532.49610636463376
 20
454.00004999999987
 11
-532.49610636463376
 21
424.00004999999987
  0
LINE
  8
_0-9__1-9_
  6
CONTINUOUS
 62
    7
 10
-474.74617636463336
 20
454.00004999999987
 11
-474.74617636463336
 21
424.00004999999987
  0
LINE
  8
_0-9__1-9_
  6
CONTINUOUS
 62
    7
 10
-460.74617636463381
 20
454.00004999999987
 11
-460.74617636463381
 21
424.00004999999987
  0
LINE
  8
_0-9__1-9_
  6
CONTINUOUS
 62
    7
 10
-402.99617636463381
 20
454.00004999999987
 11
-402.99617636463381
 21
424.00004999999987
  0
LINE
  8
_0-9__1-9_
  6
CONTINUOUS
 62
    7
 10
-388.99617636463336
 20
454.00004999999987
 11
-388.99617636463336
 21
424.00004999999987
  0
LINE
  8
_0-9__1-9_
  6
CONTINUOUS
 62
    7
 10
-331.24609636463356
 20
454.00004999999987
 11
-331.24609636463356
 21
424.00004999999987
  0
LINE
  8
_0-9__1-9_
  6
CONTINUOUS
 62
    7
 10
-317.24609636463356
 20
454.00004999999987
 11
-317.24609636463356
 21
424.00004999999987
  0
LINE
  8
_0-9__1-9_
  6
CONTINUOUS
 62
    7
 10
-259.49613636463346
 20
454.00004999999987
 11
-259.49613636463346
 21
424.00004999999987
  0
LINE
  8
_0-9__1-9_
  6
CONTINUOUS
 62
    7
 10
-245.49613636463346
 20
454.00004999999987
 11
-245.49613636463346
 21
424.00004999999987
  0
LINE
  8
_0-9__1-9_
  6
CONTINUOUS
 62
    7
 10
-187.74605636463366
 20
454.00004999999987
 11
-187.74605636463366
 21
424.00004999999987
  0
LINE
  8
_0-9__1-9_
  6
CONTINUOUS
 62
    7
 10
-173.74605636463366
 20
454.00004999999987
 11
-173.74605636463366
 21
424.00004999999987
  0
LINE
  8
_0-9__1-9_
  6
CONTINUOUS
 62
    7
 10
-115.99612636463348
 20
454.00004999999987
 11
-115.99612636463348
 21
424.00004999999987
  0
LINE
  8
_0-9__1-9_
  6
CONTINUOUS
 62
    7
 10
-101.99613636463346
 20
454.00004999999987
 11
-101.99613636463346
 21
425.1979799999998
  0
LINE
  8
_0-9__1-9_
  6
CONTINUOUS
 62
    7
 10
-44.246056364634114
 20
454.00004999999987
 11
-44.246056364634114
 21
425.1979799999998
  0
LINE
  8
_0-9__1-9_
  6
CONTINUOUS
 62
    7
 10
-30.246056364633205
 20
454.00004999999987
 11
-30.246056364633205
 21
425.1979799999998
  0
LINE
  8
_0-9__1-9_
  6
CONTINUOUS
 62
    7
 10
27.503873635366972
 20
454.00004999999987
 11
27.503873635366972
 21
425.1979799999998
  0
LINE
  8
_0-9__1-9_
  6
CONTINUOUS
 62
    7
 10
41.503873635365835
 20
454.00004999999987
 11
41.503873635365835
 21
425.1979799999998
  0
LINE
  8
_0-9__1-9_
  6
CONTINUOUS
 62
    7
 10
99.253873635365835
 20
454.00004999999987
 11
99.253873635365835
 21
425.1979799999998
  0
LINE
  8
_0-9__1-9_
  6
CONTINUOUS
 62
    7
 10
113.25387363536674
 20
454.00004999999987
 11
113.25387363536674
 21
425.1979799999998
  0
LINE
  8
_0-9__1-9_
  6
CONTINUOUS
 62
    7
 10
171.00387363536584
 20
454.00004999999987
 11
171.00387363536584
 21
425.1979799999998
  0
LINE
  8
_0-9__1-9_
  6
CONTINUOUS
 62
    7
 10
185.00387363536697
 20
454.00004999999987
 11
185.00387363536697
 21
425.1979799999998
  0
LINE
  8
_0-9__1-9_
  6
CONTINUOUS
 62
    7
 10
-574.24618636463356
 20
394.0000100000002
 11
-574.24618636463356
 21
334
  0
TEXT
  8
_0-9__1-9_
 62
    7
 10
260.9099163917449
 20
332.71898283411531
 40
16
 41
1
 50
90
  1
17
  0
TEXT
  8
_0-9__1-9_
 62
    7
 10
259.79301449739
 20
376.19679994655269
 40
16
 41
1
 50
90
  1
17
  0
TEXT
  8
_0-9__1-9_
 62
    7
 10
-275.51533042482833
 20
278.70084618477358
 40
16
 41
1
 50
0
  1
895
  0
TEXT
  8
_0-9__1-9_
 62
    7
 10
-710.4594140182212
 20
458.19919533734742
 40
16
 41
1
 50
0
  1
20
  0
TEXT
  8
_0-9__1-9_
 62
    7
 10
-691.10126932520825
 20
458.35425415036502
 40
16
 41
1
 50
0
  1
14
  0
TEXT
  8
_0-9__1-9_
 62
    7
 10
-619.59462604529062
 20
458.19919533734742
 40
16
 41
1
 50
0
  1
14
  0
TEXT
  8
_0-9__1-9_
 62
    7
 10
-548.62676025281098
 20
458.19919533734742
 40
16
 41
1
 50
0
  1
14
  0
TEXT
  8
_0-9__1-9_
 62
    7
 10
-477.0707824065862
 20
458.19919533734742
 40
16
 41
1
 50
0
  1
14
  0
TEXT
  8
_0-9__1-9_
 62
    7
 10
-404.92783768991239
 20
458.19919533734742
 40
16
 41
1
 50
0
  1
14
  0
TEXT
  8
_0-9__1-9_
 62
    7
 10
-333.17622339224658
 20
458.19919533734742
 40
16
 41
1
 50
0
  1
14
  0
TEXT
  8
_0-9__1-9_
 62
    7
 10
-261.52236464214957
 20
458.19919533734742
 40
16
 41
1
 50
0
  1
14
  0
TEXT
  8
_0-9__1-9_
 62
    7
 10
-231.83101595298422
 20
458.19919533734742
 40
16
 41
1
 50
0
  1
57.5
  0
TEXT
  8
_0-9__1-9_
 62
    7
 10
-189.52806865666253
 20
458.19919533734742
 40
16
 41
1
 50
0
  1
14
  0
TEXT
  8
_0-9__1-9_
 62
    7
 10
-117.921620499254
 20
458.19919533734742
 40
16
 41
1
 50
0
  1
14
  0
TEXT
  8
_0-9__1-9_
 62
    7
 10
-46.462529172732047
 20
458.19919533734742
 40
16
 41
1
 50
0
  1
14
  0
TEXT
  8
_0-9__1-9_
 62
    7
 10
25.604547442267858
 20
458.19919533734742
 40
16
 41
1
 50
0
  1
14
  0
TEXT
  8
_0-9__1-9_
 62
    7
 10
55.168994047015985
 20
458.19919533734742
 40
16
 41
1
 50
0
  1
57.5
  0
TEXT
  8
_0-9__1-9_
 62
    7
 10
97.660283498542867
 20
458.19919533734742
 40
16
 41
1
 50
0
  1
14
  0
TEXT
  8
_0-9__1-9_
 62
    7
 10
168.02471074011282
 20
458.36451508846699
 40
16
 41
1
 50
0
  1
14
  0
POINT
  8
_0-9__1-9_
 62
    7
 10
185.00387363536697
 20
274
  0
POINT
  8
_0-9__1-9_
 62
    7
 10
265.00387363536697
 20
394.0000100000002
  0
POINT
  8
_0-9__1-9_
 62
    7
 10
265.00387363536697
 20
377.00000000000023
  0
POINT
  8
_0-9__1-9_
 62
    7
 10
265.00387363536697
 20
351.00000000000011
  0
POINT
  8
_0-9__1-9_
 62
    7
 10
265.00387363536697
 20
334
  0
POINT
  8
_0-9__1-9_
 62
    7
 10
-769.99614636463366
 20
394.0000100000002
  0
POINT
  8
_0-9__1-9_
 62
    7
 10
-769.99614636463366
 20
334
  0
POINT
  8
_0-9__1-9_
 62
    7
 10
-709.99615636463341
 20
274
  0
POINT
  8
_0-9__1-9_
 62
    7
 10
-574.24618636463356
 20
394.0000100000002
  0
POINT
  8
_0-9__1-9_
 62
    7
 10
-574.24618636463356
 20
380.0000100000002
  0
POINT
  8
_0-9__1-9_
 62
    7
 10
-574.24618636463356
 20
347.99999000000003
  0
POINT
  8
_0-9__1-9_
 62
    7
 10
-574.24618636463356
 20
334
  0
LINE
  8
_0-9__1-9_
  6
CONTINUOUS
 62
    7
 10
1074.2947627262747
 20
2118
 11
1074.2947627262747
 21
2088
  0
LINE
  8
_0-9__1-9_
  6
CONTINUOUS
 62
    7
 10
1094.2947627262738
 20
2118
 11
1094.2947627262738
 21
2088
  0
TEXT
  8
_0-9__1-9_
 62
    7
 10
1073.7184877865211
 20
2122.1506504625918
 40
16
 41
1
 50
0
  1
20
  0
LINE
  8
_0-9__1-9_
  6
CONTINUOUS
 62
    7
 10
1167.2947627262747
 20
2118
 11
1167.2947627262747
 21
2088
  0
LINE
  8
_0-9__1-9_
  6
CONTINUOUS
 62
    7
 10
1181.2947627262738
 20
2118
 11
1181.2947627262738
 21
2088
  0
LINE
  8
_0-9__1-9_
  6
CONTINUOUS
 62
    7
 10
1239.7947627262738
 20
2118
 11
1239.7947627262738
 21
2088
  0
TEXT
  8
_0-9__1-9_
 62
    7
 10
1191.2441951363708
 20
2122.8704722626621
 40
16
 41
1
 50
0
  1
58.5
  0
LINE
  8
_0-9__1-9_
  6
CONTINUOUS
 62
    7
 10
1253.7947627262738
 20
2118
 11
1253.7947627262738
 21
2088
  0
LINE
  8
_0-9__1-9_
  6
CONTINUOUS
 62
    7
 10
1312.2947627262738
 20
2118
 11
1312.2947627262738
 21
2088
  0
LINE
  8
_0-9__1-9_
  6
CONTINUOUS
 62
    7
 10
1326.2947627262738
 20
2118
 11
1326.2947627262738
 21
2088
  0
LINE
  8
_0-9__1-9_
  6
CONTINUOUS
 62
    7
 10
1384.7947627262738
 20
2118
 11
1384.7947627262738
 21
2088
  0
LINE
  8
_0-9__1-9_
  6
CONTINUOUS
 62
    7
 10
1398.7947627262747
 20
2118
 11
1398.7947627262747
 21
2088
  0
LINE
  8
_0-9__1-9_
  6
CONTINUOUS
 62
    7
 10
1457.2947627262738
 20
2118
 11
1457.2947627262738
 21
2088
  0
LINE
  8
_0-9__1-9_
  6
CONTINUOUS
 62
    7
 10
1471.2947627262738
 20
2118
 11
1471.2947627262738
 21
2088
  0
LINE
  8
_0-9__1-9_
  6
CONTINUOUS
 62
    7
 10
1529.7947627262738
 20
2118
 11
1529.7947627262738
 21
2088
  0
LINE
  8
_0-9__1-9_
  6
CONTINUOUS
 62
    7
 10
1543.7947627262747
 20
2118
 11
1543.7947627262747
 21
2088
  0
LINE
  8
_0-9__1-9_
  6
CONTINUOUS
 62
    7
 10
1602.2947627262747
 20
2118
 11
1602.2947627262747
 21
2088
  0
LINE
  8
_0-9__1-9_
  6
CONTINUOUS
 62
    7
 10
1616.2947627262738
 20
2118
 11
1616.2947627262738
 21
2088
  0
LINE
  8
_0-9__1-9_
  6
CONTINUOUS
 62
    7
 10
1674.7947627262738
 20
2118
 11
1674.7947627262738
 21
2088
  0
LINE
  8
_0-9__1-9_
  6
CONTINUOUS
 62
    7
 10
1688.7947627262747
 20
2118
 11
1688.7947627262747
 21
2088
  0
LINE
  8
_0-9__1-9_
  6
CONTINUOUS
 62
    7
 10
1747.2947627262747
 20
2118
 11
1747.2947627262747
 21
2088
  0
LINE
  8
_0-9__1-9_
  6
CONTINUOUS
 62
    7
 10
1761.2947627262738
 20
2118
 11
1761.2947627262738
 21
2088
  0
LINE
  8
_0-9__1-9_
  6
CONTINUOUS
 62
    7
 10
1819.7947627262738
 20
2118
 11
1819.7947627262738
 21
2088
  0
LINE
  8
_0-9__1-9_
  6
CONTINUOUS
 62
    7
 10
1833.7947627262738
 20
2118
 11
1833.7947627262738
 21
2088
  0
LINE
  8
_0-9__1-9_
  6
CONTINUOUS
 62
    7
 10
1892.2947627262747
 20
2118
 11
1892.2947627262747
 21
2088
  0
LINE
  8
_0-9__1-9_
  6
CONTINUOUS
 62
    7
 10
1906.2947627262747
 20
2118
 11
1906.2947627262747
 21
2088
  0
LINE
  8
_0-9__1-9_
  6
CONTINUOUS
 62
    7
 10
1964.7947627262747
 20
2118
 11
1964.7947627262747
 21
2088
  0
LINE
  8
_0-9__1-9_
  6
CONTINUOUS
 62
    7
 10
1978.7947627262738
 20
2118
 11
1978.7947627262738
 21
2088
  0
LINE
  8
_0-9__1-9_
  6
CONTINUOUS
 62
    7
 10
2037.2947627262738
 20
2118
 11
2037.2947627262738
 21
2088
  0
LINE
  8
_0-9__1-9_
  6
CONTINUOUS
 62
    7
 10
2051.2947627262747
 20
2118
 11
2051.2947627262747
 21
2088
  0
LINE
  8
_0-9__1-9_
  6
CONTINUOUS
 62
    7
 10
2109.7947627262747
 20
2118
 11
2109.7947627262747
 21
2088
  0
LINE
  8
_0-9__1-9_
  6
CONTINUOUS
 62
    7
 10
2123.7947627262747
 20
2118
 11
2123.7947627262747
 21
2088
  0
LINE
  8
_0-9__1-9_
  6
CONTINUOUS
 62
    7
 10
2182.2947627262747
 20
2118
 11
2182.2947627262747
 21
2088
  0
LINE
  8
_0-9__1-9_
  6
CONTINUOUS
 62
    7
 10
2196.2947627262747
 20
2118
 11
2196.2947627262747
 21
2088
  0
LINE
  8
_0-9__1-9_
  6
CONTINUOUS
 62
    7
 10
2269.2947627262747
 20
2118
 11
2269.2947627262747
 21
2088
  0
LINE
  8
_0-9__1-9_
  6
CONTINUOUS
 62
    7
 10
1074.2947627262747
 20
1938
 11
2294.2947627262738
 21
1938
  0
POINT
  8
_0-9__1-9_
 62
    7
 10
1074.2947627262747
 20
1938
  0
POINT
  8
_0-9__1-9_
 62
    7
 10
2269.2947627262747
 20
1938
  0
LINE
  8
_0-9__1-9_
  6
CONTINUOUS
 62
    7
 10
1074.2947627262747
 20
1938
 11
1074.2947627262747
 21
1968
  0
LINE
  8
_0-9__1-9_
  6
CONTINUOUS
 62
    7
 10
2269.2947627262747
 20
1938
 11
2269.2947627262747
 21
1968
  0
TEXT
  8
_0-9__1-9_
 62
    7
 10
1636.4947627262741
 20
1943.7425273514859
 40
16
 41
1
 50
0
  1
1,195
  0
LINE
  8
_0-9__1-9_
  6
CONTINUOUS
 62
    7
 10
2354.2947627262738
 20
2058
 11
2354.2947627262738
 21
1998
  0
POINT
  8
_0-9__1-9_
 62
    7
 10
2354.2947627262738
 20
2058
  0
POINT
  8
_0-9__1-9_
 62
    7
 10
2354.2947627262738
 20
2041
  0
LINE
  8
_0-9__1-9_
  6
CONTINUOUS
 62
    7
 10
2354.2947627262738
 20
2058
 11
2324.2947627262747
 21
2058
  0
LINE
  8
_0-9__1-9_
  6
CONTINUOUS
 62
    7
 10
2354.2947627262738
 20
2041
 11
2324.2947627262747
 21
2041
  0
POINT
  8
_0-9__1-9_
 62
    7
 10
2354.2947627262738
 20
2015
  0
LINE
  8
_0-9__1-9_
  6
CONTINUOUS
 62
    7
 10
2354.2947627262738
 20
2015
 11
2324.2947627262747
 21
2015
  0
POINT
  8
_0-9__1-9_
 62
    7
 10
2354.2947627262738
 20
1998
  0
LINE
  8
_0-9__1-9_
  6
CONTINUOUS
 62
    7
 10
2354.2947627262738
 20
1998
 11
2324.2947627262747
 21
1998
  0
POINT
  8
_0-9__1-9_
 62
    7
 10
1014.2947627262738
 20
2058
  0
LINE
  8
_0-9__1-9_
  6
CONTINUOUS
 62
    7
 10
1014.2947627262738
 20
2058
 11
1044.2947627262738
 21
2058
  0
POINT
  8
_0-9__1-9_
 62
    7
 10
1014.2947627262738
 20
1998
  0
LINE
  8
_0-9__1-9_
  6
CONTINUOUS
 62
    7
 10
1014.2947627262738
 20
1998
 11
1044.2947627262738
 21
1998
  0
LINE
  8
_0-9__1-9_
  6
CONTINUOUS
 62
    7
 10
1014.2947627262738
 20
2058
 11
1014.2947627262738
 21
1998
  0
TEXT
  8
_0-9__1-9_
 62
    7
 10
1010.9695478465728
 20
2016.548194790581
 40
16
 41
1
 50
90
  1
60
  0
TEXT
  8
_0-9__1-9_
 62
    7
 10
2180.551313677774
 20
2122.3131020318269
 40
16
 41
1
 50
0
  1
14
  0
TEXT
  8
_0-9__1-9_
 62
    7
 10
2107.8837980098419
 20
2122.1692931582279
 40
16
 41
1
 50
0
  1
14
  0
TEXT
  8
_0-9__1-9_
 62
    7
 10
2034.591438360108
 20
2121.6263867904518
 40
16
 41
1
 50
0
  1
14
  0
TEXT
  8
_0-9__1-9_
 62
    7
 10
1961.8419850781488
 20
2122.1692931582279
 40
16
 41
1
 50
0
  1
14
  0
TEXT
  8
_0-9__1-9_
 62
    7
 10
1890.1783445317419
 20
2121.6263867904518
 40
16
 41
1
 50
0
  1
14
  0
TEXT
  8
_0-9__1-9_
 62
    7
 10
1817.1574380658949
 20
2121.8978399743401
 40
16
 41
1
 50
0
  1
14
  0
TEXT
  8
_0-9__1-9_
 62
    7
 10
1671.6585315019779
 20
2121.6263867904518
 40
16
 41
1
 50
0
  1
14
  0
TEXT
  8
_0-9__1-9_
 62
    7
 10
1599.458569752609
 20
2121.1381485800021
 40
16
 41
1
 50
0
  1
14
  0
TEXT
  8
_0-9__1-9_
 62
    7
 10
1528.2660603519139
 20
2121.5827733318761
 40
16
 41
1
 50
0
  1
14
  0
TEXT
  8
_0-9__1-9_
 62
    7
 10
1455.071764223906
 20
2121.7559389376652
 40
16
 41
1
 50
0
  1
14
  0
TEXT
  8
_0-9__1-9_
 62
    7
 10
1381.727386086654
 20
2122.4163065149341
 40
16
 41
1
 50
0
  1
14
  0
TEXT
  8
_0-9__1-9_
 62
    7
 10
1309.3817551041029
 20
2121.8022842646951
 40
16
 41
1
 50
0
  1
14
  0
TEXT
  8
_0-9__1-9_
 62
    7
 10
1236.4854327364051
 20
2121.6304414775882
 40
16
 41
1
 50
0
  1
14
  0
TEXT
  8
_0-9__1-9_
 62
    7
 10
1165.1529503600768
 20
2121.7629218513621
 40
16
 41
1
 50
0
  1
14
  0
LINE
  8
_0-9__1-9_
  6
CONTINUOUS
 62
    7
 10
1365.5447627262738
 20
2058
 11
1365.5447627262738
 21
1998
  0
POINT
  8
_0-9__1-9_
 62
    7
 10
1365.5447627262738
 20
2058
  0
POINT
  8
_0-9__1-9_
 62
    7
 10
1365.5447627262738
 20
2044
  0
POINT
  8
_0-9__1-9_
 62
    7
 10
1365.5447627262738
 20
2012
  0
POINT
  8
_0-9__1-9_
 62
    7
 10
1365.5447627262738
 20
1998
  0
LINE
  8
_0-9__1-9_
  6
CONTINUOUS
 62
    7
 10
1108.7947627262738
 20
2118
 11
1108.7947627262738
 21
2088
  0
TEXT
  8
_0-9__1-9_
 62
    7
 10
1116.835272985918
 20
2122.5086027814732
 40
16
 41
1
 50
0
  1
58.5
  0
LINE
  8
_0-9__1-9_
  6
CONTINUOUS
 62
    7
 10
2254.7947627262738
 20
2118
 11
2254.7947627262738
 21
2088
  0
TEXT
  8
_0-9__1-9_
 62
    7
 10
2248.0563773410299
 20
2123.265428191798
 40
16
 41
1
 50
0
  1
14.5
  0
TEXT
  8
_0-9__1-9_
 62
    7
 10
1745.247675483718
 20
2121.8118776753668
 40
16
 41
1
 50
0
  1
14
  0
LINE
  8
_0-9__1-9_
  6
CONTINUOUS
 62
    7
 10
1669.2947627262738
 20
1679.5000049999999
 11
1669.2947627262738
 21
1709.5000049999999
  0
LINE
  8
_0-9__1-9_
  6
CONTINUOUS
 62
    7
 10
1669.2947627262738
 20
1514.5
 11
1669.2947627262738
 21
1544.5
  0
LINE
  8
_0-9__1-9_
  6
CONTINUOUS
 62
    7
 10
1719.2947627262747
 20
1574.5
 11
1749.2948627262749
 21
1574.4999
  0
LINE
  8
_0-9__1-9_
  6
CONTINUOUS
 62
    7
 10
1749.2947627262738
 20
1649.5
 11
1749.2947627262738
 21
1574.5
  0
LINE
  8
_0-9__1-9_
  6
CONTINUOUS
 62
    7
 10
1719.2947627262747
 20
1631.5
 11
1749.2947627262738
 21
1631.5
  0
LINE
  8
_0-9__1-9_
  6
CONTINUOUS
 62
    7
 10
1719.2947627262747
 20
1592.5
 11
1749.2947627262738
 21
1592.5
  0
LINE
  8
_0-9__1-9_
  6
CONTINUOUS
 62
    7
 10
1074.2947627262738
 20
1514.500000000005
 11
1689.2947627262738
 21
1514.5
  0
LINE
  8
_0-9__1-9_
  6
CONTINUOUS
 62
    7
 10
1074.2947627262747
 20
1709.5000049999999
 11
1669.2947627262738
 21
1709.5000049999999
  0
LINE
  8
_0-9__1-9_
  6
CONTINUOUS
 62
    7
 10
1074.2947627262738
 20
1514.500000000005
 11
1074.2947627262738
 21
1544.5
  0
LINE
  8
_0-9__1-9_
  6
CONTINUOUS
 62
    7
 10
1074.2947627262747
 20
1679.5000049999999
 11
1074.2947627262747
 21
1709.5000049999999
  0
LINE
  8
_0-9__1-9_
  6
CONTINUOUS
 62
    7
 10
1014.2947627262746
 20
1649.5
 11
1014.2947627262746
 21
1574.5
  0
LINE
  8
_0-9__1-9_
  6
CONTINUOUS
 62
    7
 10
1014.2947627262746
 20
1649.5
 11
1044.2947627262738
 21
1649.5
  0
LINE
  8
_0-9__1-9_
  6
CONTINUOUS
 62
    7
 10
1014.2947627262746
 20
1574.5
 11
1044.2947627262738
 21
1574.5
  0
LINE
  8
_0-9__1-9_
  6
CONTINUOUS
 62
    7
 10
1094.2947627262738
 20
1679.5000049999999
 11
1094.2947627262738
 21
1709.5000049999999
  0
LINE
  8
_0-9__1-9_
  6
CONTINUOUS
 62
    7
 10
1109.2947627262738
 20
1679.5000049999999
 11
1109.2947627262738
 21
1709.5000049999999
  0
LINE
  8
_0-9__1-9_
  6
CONTINUOUS
 62
    7
 10
1164.2947627262747
 20
1679.5000049999999
 11
1164.2947627262747
 21
1709.5000049999999
  0
LINE
  8
_0-9__1-9_
  6
CONTINUOUS
 62
    7
 10
1179.2947627262747
 20
1679.5000049999999
 11
1179.2947627262747
 21
1709.5000049999999
  0
TEXT
  8
_0-9__1-9_
 62
    7
 10
1335.8984707170521
 20
1518.6894295901091
 40
16
 41
1
 50
0
  1
595
  0
TEXT
  8
_0-9__1-9_
 62
    7
 10
1073.0242830091988
 20
1714.9968782589749
 40
16
 41
1
 50
0
  1
20
  0
TEXT
  8
_0-9__1-9_
 62
    7
 10
1092.0403005724429
 20
1714.827548949783
 40
16
 41
1
 50
0
  1
15
  0
LINE
  8
_0-9__1-9_
  6
CONTINUOUS
 62
    7
 10
1234.2947627262738
 20
1679.5000049999999
 11
1234.2947627262738
 21
1709.5000049999999
  0
LINE
  8
_0-9__1-9_
  6
CONTINUOUS
 62
    7
 10
1249.2947627262738
 20
1679.5000049999999
 11
1249.2947627262738
 21
1709.5000049999999
  0
LINE
  8
_0-9__1-9_
  6
CONTINUOUS
 62
    7
 10
1304.2947627262747
 20
1679.5000049999999
 11
1304.2947627262747
 21
1709.5000049999999
  0
LINE
  8
_0-9__1-9_
  6
CONTINUOUS
 62
    7
 10
1319.2947627262738
 20
1679.5000049999999
 11
1319.2947627262738
 21
1709.5000049999999
  0
LINE
  8
_0-9__1-9_
  6
CONTINUOUS
 62
    7
 10
1374.2947627262738
 20
1679.5000049999999
 11
1374.2947627262738
 21
1709.5000049999999
  0
LINE
  8
_0-9__1-9_
  6
CONTINUOUS
 62
    7
 10
1389.2947627262747
 20
1679.5000049999999
 11
1389.2947627262747
 21
1709.5000049999999
  0
LINE
  8
_0-9__1-9_
  6
CONTINUOUS
 62
    7
 10
1444.2947627262738
 20
1679.5000049999999
 11
1444.2947627262738
 21
1709.5000049999999
  0
LINE
  8
_0-9__1-9_
  6
CONTINUOUS
 62
    7
 10
1459.2947627262738
 20
1679.5000049999999
 11
1459.2947627262738
 21
1709.5000049999999
  0
LINE
  8
_0-9__1-9_
  6
CONTINUOUS
 62
    7
 10
1514.2947627262747
 20
1679.5000049999999
 11
1514.2947627262747
 21
1709.5000049999999
  0
LINE
  8
_0-9__1-9_
  6
CONTINUOUS
 62
    7
 10
1529.2947627262747
 20
1679.5000049999999
 11
1529.2947627262747
 21
1709.5000049999999
  0
LINE
  8
_0-9__1-9_
  6
CONTINUOUS
 62
    7
 10
1584.2947627262738
 20
1679.5000049999999
 11
1584.2947627262738
 21
1709.5000049999999
  0
LINE
  8
_0-9__1-9_
  6
CONTINUOUS
 62
    7
 10
1599.2947627262747
 20
1679.5000049999999
 11
1599.2947627262747
 21
1709.5000049999999
  0
LINE
  8
_0-9__1-9_
  6
CONTINUOUS
 62
    7
 10
1654.2947627262747
 20
1679.5000049999999
 11
1654.2947627262747
 21
1709.5000049999999
  0
LINE
  8
_0-9__1-9_
  6
CONTINUOUS
 62
    7
 10
1214.2947627262738
 20
1649.5
 11
1214.2947627262738
 21
1574.5
  0
TEXT
  8
_0-9__1-9_
 62
    7
 10
1162.8770010251628
 20
1714.528181113933
 40
16
 41
1
 50
0
  1
15
  0
TEXT
  8
_0-9__1-9_
 62
    7
 10
1195.2556184416349
 20
1714.334297177307
 40
16
 41
1
 50
0
  1
55
  0
TEXT
  8
_0-9__1-9_
 62
    7
 10
1125.0696333831729
 20
1714.1404132406819
 40
16
 41
1
 50
0
  1
55
  0
TEXT
  8
_0-9__1-9_
 62
    7
 10
1232.2874503371218
 20
1713.946529304056
 40
16
 41
1
 50
0
  1
15
  0
TEXT
  8
_0-9__1-9_
 62
    7
 10
1265.247719563471
 20
1714.1404132406819
 40
16
 41
1
 50
0
  1
55
  0
TEXT
  8
_0-9__1-9_
 62
    7
 10
1372.465536517419
 20
1713.946529304056
 40
16
 41
1
 50
0
  1
15
  0
TEXT
  8
_0-9__1-9_
 62
    7
 10
1334.8520528120548
 20
1713.946529304056
 40
16
 41
1
 50
0
  1
55
  0
TEXT
  8
_0-9__1-9_
 62
    7
 10
1302.667319332209
 20
1713.558761430804
 40
16
 41
1
 50
0
  1
15
  0
TEXT
  8
_0-9__1-9_
 62
    7
 10
1405.0380378705167
 20
1713.946529304056
 40
16
 41
1
 50
0
  1
55
  0
TEXT
  8
_0-9__1-9_
 62
    7
 10
1545.3337362900561
 20
1714.300968368367
 40
16
 41
1
 50
0
  1
55
  0
TEXT
  8
_0-9__1-9_
 62
    7
 10
1475.8841897214547
 20
1714.036901651375
 40
16
 41
1
 50
0
  1
55
  0
TEXT
  8
_0-9__1-9_
 62
    7
 10
1442.6117833806038
 20
1714.300968368367
 40
16
 41
1
 50
0
  1
15
  0
TEXT
  8
_0-9__1-9_
 62
    7
 10
1617.463730593835
 20
1713.260612019646
 40
16
 41
1
 50
0
  1
55
  0
TEXT
  8
_0-9__1-9_
 62
    7
 10
1652.73312710958
 20
1713.808517393381
 40
16
 41
1
 50
0
  1
15
  0
TEXT
  8
_0-9__1-9_
 62
    7
 10
1582.3390563804801
 20
1713.362369794487
 40
16
 41
1
 50
0
  1
15
  0
TEXT
  8
_0-9__1-9_
 62
    7
 10
1513.416843451575
 20
1713.7569036564719
 40
16
 41
1
 50
0
  1
15
  0
TEXT
  8
_0-9__1-9_
 62
    7
 10
1211.4163655794609
 20
1574.308075056917
 40
16
 41
1
 50
90
  1
15
  0
LINE
  8
_0-9__1-9_
  6
CONTINUOUS
 62
    7
 10
1514.294822726275
 20
1105.9999900000009
 11
1514.294822726275
 21
1135.9999900000009
  0
LINE
  8
_0-9__1-9_
  6
CONTINUOUS
 62
    7
 10
1456.2948327262748
 20
1105.9999900000009
 11
1456.2948327262748
 21
1135.9999900000009
  0
LINE
  8
_0-9__1-9_
  6
CONTINUOUS
 62
    7
 10
1596.294752726275
 20
1105.9999900000009
 11
1596.294752726275
 21
1135.9999900000009
  0
LINE
  8
_0-9__1-9_
  6
CONTINUOUS
 62
    7
 10
1584.2947627262738
 20
1105.9999900000009
 11
1584.2947627262738
 21
1135.9999900000009
  0
LINE
  8
_0-9__1-9_
  6
CONTINUOUS
 62
    7
 10
1526.2947627262747
 20
1105.9999900000009
 11
1526.2947627262747
 21
1135.9999900000009
  0
LINE
  8
_0-9__1-9_
  6
CONTINUOUS
 62
    7
 10
1612.294752726275
 20
1105.9999900000009
 11
1612.294752726275
 21
1135.9999900000009
  0
LINE
  8
_0-9__1-9_
  6
CONTINUOUS
 62
    7
 10
1246.2948127262748
 20
1105.9999900000009
 11
1246.2948127262748
 21
1135.9999900000009
  0
LINE
  8
_0-9__1-9_
  6
CONTINUOUS
 62
    7
 10
1014.2947627262738
 20
1165.9999949999999
 11
1014.2947627262738
 21
1230.8000950000001
  0
LINE
  8
_0-9__1-9_
  6
CONTINUOUS
 62
    7
 10
1374.2947127262751
 20
1105.9999900000009
 11
1374.2947127262751
 21
1135.9999900000009
  0
LINE
  8
_0-9__1-9_
  6
CONTINUOUS
 62
    7
 10
1386.2948027262737
 20
1105.9999900000009
 11
1386.2948027262737
 21
1135.9999900000009
  0
LINE
  8
_0-9__1-9_
  6
CONTINUOUS
 62
    7
 10
1106.2947727262749
 20
1105.9999900000009
 11
1106.2947727262749
 21
1135.9999900000009
  0
LINE
  8
_0-9__1-9_
  6
CONTINUOUS
 62
    7
 10
1176.294822726275
 20
1105.9999900000009
 11
1176.294822726275
 21
1135.9999900000009
  0
LINE
  8
_0-9__1-9_
  6
CONTINUOUS
 62
    7
 10
1234.2947727262749
 20
1105.9999900000009
 11
1234.2947727262749
 21
1135.9999900000009
  0
LINE
  8
_0-9__1-9_
  6
CONTINUOUS
 62
    7
 10
1444.294842726275
 20
1105.9999900000009
 11
1444.294842726275
 21
1135.9999900000009
  0
LINE
  8
_0-9__1-9_
  6
CONTINUOUS
 62
    7
 10
1074.2947127262751
 20
1075.9999900000009
 11
1074.2947627262747
 21
1135.9999900000009
  0
LINE
  8
_0-9__1-9_
  6
CONTINUOUS
 62
    7
 10
1164.2947627262747
 20
1105.9999900000009
 11
1164.2947627262747
 21
1135.9999900000009
  0
LINE
  8
_0-9__1-9_
  6
CONTINUOUS
 62
    7
 10
1316.294792726274
 20
1105.9999900000009
 11
1316.294792726274
 21
1135.9999900000009
  0
LINE
  8
_0-9__1-9_
  6
CONTINUOUS
 62
    7
 10
1304.2948027262737
 20
1105.9999900000009
 11
1304.2948027262737
 21
1135.9999900000009
  0
LINE
  8
_0-9__1-9_
  6
CONTINUOUS
 62
    7
 10
1094.2947627262738
 20
1105.9999900000009
 11
1094.2947627262738
 21
1135.9999900000009
  0
LINE
  8
_0-9__1-9_
  6
CONTINUOUS
 62
    7
 10
1704.2947927262749
 20
1165.9999149999999
 11
1704.2947927262749
 21
1225.999965
  0
LINE
  8
_0-9__1-9_
  6
CONTINUOUS
 62
    7
 10
1014.2947627262738
 20
1226.000045
 11
1044.2947627262738
 21
1226.000045
  0
LINE
  8
_0-9__1-9_
  6
CONTINUOUS
 62
    7
 10
1624.2947927262749
 20
1105.9999900000009
 11
1624.2947927262749
 21
1135.9999900000009
  0
LINE
  8
_0-9__1-9_
  6
CONTINUOUS
 62
    7
 10
1044.2947627262738
 20
1165.9999949999999
 11
1014.2947627262738
 21
1165.9999949999999
  0
LINE
  8
_0-9__1-9_
  6
CONTINUOUS
 62
    7
 10
1674.2947627262747
 20
1208.9999149999999
 11
1704.2947927262749
 21
1208.9999149999999
  0
LINE
  8
_0-9__1-9_
  6
CONTINUOUS
 62
    7
 10
1074.2947627262747
 20
1276.0000150000001
 11
1624.2947927262749
 21
1276.0000150000001
  0
LINE
  8
_0-9__1-9_
  6
CONTINUOUS
 62
    7
 10
1644.2947127262751
 20
1075.9999900000009
 11
1644.2947627262747
 21
1135.9999900000009
  0
LINE
  8
_0-9__1-9_
  6
CONTINUOUS
 62
    7
 10
1704.2947927262749
 20
1182.9999250000001
 11
1674.2947627262747
 21
1182.9999250000001
  0
LINE
  8
_0-9__1-9_
  6
CONTINUOUS
 62
    7
 10
1624.2947377258929
 20
1105.9995316666909
 11
1074.2947627262747
 21
1105.9999900000009
  0
LINE
  8
_0-9__1-9_
  6
CONTINUOUS
 62
    7
 10
1624.294842726275
 20
1276.0000150000001
 11
1624.294842726275
 21
1240.7183849999999
  0
LINE
  8
_0-9__1-9_
  6
CONTINUOUS
 62
    7
 10
1539.2947627262747
 20
1276.0000150000001
 11
1539.2947627262747
 21
1219.0000049999999
  0
LINE
  8
_0-9__1-9_
  6
CONTINUOUS
 62
    7
 10
1469.2947727262749
 20
1276.0000150000001
 11
1469.2947727262749
 21
1219.0000049999999
  0
LINE
  8
_0-9__1-9_
  6
CONTINUOUS
 62
    7
 10
1399.2947927262749
 20
1276.0000150000001
 11
1399.2947927262749
 21
1219.0000049999999
  0
LINE
  8
_0-9__1-9_
  6
CONTINUOUS
 62
    7
 10
1329.2948127262739
 20
1276.0000150000001
 11
1329.2948127262739
 21
1219.0000049999999
  0
LINE
  8
_0-9__1-9_
  6
CONTINUOUS
 62
    7
 10
1259.2948027262737
 20
1276.0000150000001
 11
1259.2948027262737
 21
1219.0000049999999
  0
LINE
  8
_0-9__1-9_
  6
CONTINUOUS
 62
    7
 10
1189.294772726274
 20
1276.0000150000001
 11
1189.294772726274
 21
1219.94654803757
  0
LINE
  8
_0-9__1-9_
  6
CONTINUOUS
 62
    7
 10
1074.2948127262739
 20
1275.999965
 11
1074.2947627262747
 21
1240.7183849999999
  0
CIRCLE
  8
_0-9__1-9_
  6
CONTINUOUS
 62
    7
 10
1074.2948127262739
 20
1275.999965
 40
0.5999999999999997
  0
CIRCLE
  8
_0-9__1-9_
  6
CONTINUOUS
 62
    7
 10
1119.2947827262738
 20
1276.0000649999999
 40
0.5999999999999997
  0
CIRCLE
  8
_0-9__1-9_
  6
CONTINUOUS
 62
    7
 10
1189.2947927262749
 20
1276.0000649999999
 40
0.5999999999999997
  0
CIRCLE
  8
_0-9__1-9_
  6
CONTINUOUS
 62
    7
 10
1259.2947727262749
 20
1276.0000649999999
 40
0.5999999999999997
  0
CIRCLE
  8
_0-9__1-9_
  6
CONTINUOUS
 62
    7
 10
1329.2947827262738
 20
1276.0000649999999
 40
0.5999999999999997
  0
CIRCLE
  8
_0-9__1-9_
  6
CONTINUOUS
 62
    7
 10
1399.2947927262749
 20
1276.0000649999999
 40
0.5999999999999997
  0
CIRCLE
  8
_0-9__1-9_
  6
CONTINUOUS
 62
    7
 10
1469.2947727262749
 20
1276.0000649999999
 40
0.5999999999999997
  0
CIRCLE
  8
_0-9__1-9_
  6
CONTINUOUS
 62
    7
 10
1539.2948127262748
 20
1276.0000649999999
 40
0.5999999999999997
  0
CIRCLE
  8
_0-9__1-9_
  6
CONTINUOUS
 62
    7
 10
1609.2947427262748
 20
1276.0000649999999
 40
0.5999999999999997
  0
CIRCLE
  8
_0-9__1-9_
  6
CONTINUOUS
 62
    7
 10
1624.2948927262751
 20
1275.9999149999999
 40
0.5999999999999997
  0
CIRCLE
  8
_0-9__1-9_
  6
CONTINUOUS
 62
    7
 10
1704.2947927262749
 20
1225.9999949999999
 40
0.5999999999999997
  0
CIRCLE
  8
_0-9__1-9_
  6
CONTINUOUS
 62
    7
 10
1704.2947927262749
 20
1208.9998849999999
 40
0.5999999999999997
  0
CIRCLE
  8
_0-9__1-9_
  6
CONTINUOUS
 62
    7
 10
1704.2947927262749
 20
1182.9999749999999
 40
0.5999999999999997
  0
CIRCLE
  8
_0-9__1-9_
  6
CONTINUOUS
 62
    7
 10
1704.2947927262749
 20
1165.9999149999999
 40
0.5999999999999997
  0
CIRCLE
  8
_0-9__1-9_
  6
CONTINUOUS
 62
    7
 10
1014.2948247262738
 20
1225.9999949999999
 40
0.5999999999999997
  0
CIRCLE
  8
_0-9__1-9_
  6
CONTINUOUS
 62
    7
 10
1014.2947937262747
 20
1166.000045
 40
0.5999999999999997
  0
CIRCLE
  8
_0-9__1-9_
  6
CONTINUOUS
 62
    7
 10
1074.2947127262751
 20
1106.0000399999999
 40
0.5999999999999997
  0
CIRCLE
  8
_0-9__1-9_
  6
CONTINUOUS
 62
    7
 10
1094.2948327262748
 20
1105.9999200000009
 40
0.5999999999999997
  0
CIRCLE
  8
_0-9__1-9_
  6
CONTINUOUS
 62
    7
 10
1106.2946927262738
 20
1106.0000399999999
 40
0.5999999999999997
  0
CIRCLE
  8
_0-9__1-9_
  6
CONTINUOUS
 62
    7
 10
1164.2948327262748
 20
1105.9999200000009
 40
0.5999999999999997
  0
CIRCLE
  8
_0-9__1-9_
  6
CONTINUOUS
 62
    7
 10
1176.294702726274
 20
1106.0000399999999
 40
0.5999999999999997
  0
CIRCLE
  8
_0-9__1-9_
  6
CONTINUOUS
 62
    7
 10
1234.294842726275
 20
1105.9999200000009
 40
0.5999999999999997
  0
CIRCLE
  8
_0-9__1-9_
  6
CONTINUOUS
 62
    7
 10
1246.294682726274
 20
1106.0000399999999
 40
0.5999999999999997
  0
CIRCLE
  8
_0-9__1-9_
  6
CONTINUOUS
 62
    7
 10
1304.294822726275
 20
1105.9999200000009
 40
0.5999999999999997
  0
CIRCLE
  8
_0-9__1-9_
  6
CONTINUOUS
 62
    7
 10
1316.2946927262751
 20
1106.0000399999999
 40
0.5999999999999997
  0
CIRCLE
  8
_0-9__1-9_
  6
CONTINUOUS
 62
    7
 10
1374.2948127262748
 20
1105.9999200000009
 40
0.5999999999999997
  0
CIRCLE
  8
_0-9__1-9_
  6
CONTINUOUS
 62
    7
 10
1386.2947027262749
 20
1106.0000399999999
 40
0.5999999999999997
  0
CIRCLE
  8
_0-9__1-9_
  6
CONTINUOUS
 62
    7
 10
1444.294842726275
 20
1105.9999200000009
 40
0.5999999999999997
  0
CIRCLE
  8
_0-9__1-9_
  6
CONTINUOUS
 62
    7
 10
1456.2946827262749
 20
1106.0000399999999
 40
0.5999999999999997
  0
CIRCLE
  8
_0-9__1-9_
  6
CONTINUOUS
 62
    7
 10
1514.294822726275
 20
1105.9999200000009
 40
0.5999999999999997
  0
CIRCLE
  8
_0-9__1-9_
  6
CONTINUOUS
 62
    7
 10
1526.2947127262751
 20
1106.0000399999999
 40
0.5999999999999997
  0
CIRCLE
  8
_0-9__1-9_
  6
CONTINUOUS
 62
    7
 10
1584.2948127262748
 20
1105.9999200000009
 40
0.5999999999999997
  0
CIRCLE
  8
_0-9__1-9_
  6
CONTINUOUS
 62
    7
 10
1596.2946527262748
 20
1106.0000399999999
 40
0.5999999999999997
  0
CIRCLE
  8
_0-9__1-9_
  6
CONTINUOUS
 62
    7
 10
1612.294752726275
 20
1105.9999400000011
 40
0.5999999999999997
  0
CIRCLE
  8
_0-9__1-9_
  6
CONTINUOUS
 62
    7
 10
1624.2948927262751
 20
1106.0001200000011
 40
0.5999999999999997
  0
CIRCLE
  8
_0-9__1-9_
  6
CONTINUOUS
 62
    7
 10
1644.2947127262751
 20
1075.9999900000009
 40
0.5999999999999997
  0
TEXT
  8
_0-9__1-9_
 62
    7
 10
1333.9543002527198
 20
1110.1332080497079
 40
16
 41
1
 50
0
  1
58
  0
TEXT
  8
_0-9__1-9_
 62
    7
 10
1303.4497734575971
 20
1109.911108049708
 40
16
 41
1
 50
0
  1
12
  0
TEXT
  8
_0-9__1-9_
 62
    7
 10
1233.182903957299
 20
1109.911108049708
 40
16
 41
1
 50
0
  1
12
  0
TEXT
  8
_0-9__1-9_
 62
    7
 10
1475.8809614267498
 20
1110.1332080497079
 40
16
 41
1
 50
0
  1
58
  0
TEXT
  8
_0-9__1-9_
 62
    7
 10
1265.6731313931177
 20
1110.1332080497079
 40
16
 41
1
 50
0
  1
58
  0
TEXT
  8
_0-9__1-9_
 62
    7
 10
1512.9138600083061
 20
1109.911108049708
 40
16
 41
1
 50
0
  1
12
  0
TEXT
  8
_0-9__1-9_
 62
    7
 10
1163.1828817974747
 20
1109.911108049708
 40
16
 41
1
 50
0
  1
12
  0
TEXT
  8
_0-9__1-9_
 62
    7
 10
1086.2938976992759
 20
1279.75371031485
 40
16
 41
1
 50
0
  1
45
  0
TEXT
  8
_0-9__1-9_
 62
    7
 10
1405.8809814267511
 20
1110.1332080497079
 40
16
 41
1
 50
0
  1
58
  0
TEXT
  8
_0-9__1-9_
 62
    7
 10
1442.6997941447198
 20
1109.911108049708
 40
16
 41
1
 50
0
  1
12
  0
TEXT
  8
_0-9__1-9_
 62
    7
 10
1700.7437797713019
 20
1208.204027902505
 40
16
 41
1
 50
90
  1
17
  0
TEXT
  8
_0-9__1-9_
 62
    7
 10
1577.8443035290129
 20
1110.7715780497081
 40
16
 41
1
 50
0
  1
12
  0
TEXT
  8
_0-9__1-9_
 62
    7
 10
1074.145176555955
 20
1110.1332080497079
 40
16
 41
1
 50
0
  1
20
  0
TEXT
  8
_0-9__1-9_
 62
    7
 10
1124.2315120829999
 20
1110.1332080497079
 40
16
 41
1
 50
0
  1
58
  0
TEXT
  8
_0-9__1-9_
 62
    7
 10
1093.3594402839799
 20
1109.911108049708
 40
16
 41
1
 50
0
  1
12
  0
TEXT
  8
_0-9__1-9_
 62
    7
 10
1143.0133048869588
 20
1279.4680103148501
 40
16
 41
1
 50
0
  1
70
  0
TEXT
  8
_0-9__1-9_
 62
    7
 10
1611.8253175836749
 20
1110.5643480497081
 40
16
 41
1
 50
0
  1
12
  0
TEXT
  8
_0-9__1-9_
 62
    7
 10
1195.4298884310988
 20
1110.1332080497079
 40
16
 41
1
 50
0
  1
58
  0
TEXT
  8
_0-9__1-9_
 62
    7
 10
1546.3091488342748
 20
1110.1332080497079
 40
16
 41
1
 50
0
  1
58
  0
TEXT
  8
_0-9__1-9_
 62
    7
 10
1594.6361444296631
 20
1110.9787880497079
 40
16
 41
1
 50
0
  1
16
  0
TEXT
  8
_0-9__1-9_
 62
    7
 10
1372.4857526007827
 20
1109.911108049708
 40
16
 41
1
 50
0
  1
12
  0
TEXT
  8
_0-9__1-9_
 62
    7
 10
1354.3613302727108
 20
1279.16292031485
 40
16
 41
1
 50
0
  1
70
  0
TEXT
  8
_0-9__1-9_
 62
    7
 10
1606.9444435385358
 20
1279.55259031485
 40
16
 41
1
 50
0
  1
15
  0
TEXT
  8
_0-9__1-9_
 62
    7
 10
1283.3732878161777
 20
1279.7228303148499
 40
16
 41
1
 50
0
  1
70
  0
TEXT
  8
_0-9__1-9_
 62
    7
 10
1321.704582726275
 20
1080.2174079308379
 40
16
 41
1
 50
0
  1
550
  0
TEXT
  8
_0-9__1-9_
 62
    7
 10
1010.6374204602483
 20
1188.868912152647
 40
16
 41
1
 50
89.999937999999702
  1
60
  0
TEXT
  8
_0-9__1-9_
 62
    7
 10
1492.0931379360491
 20
1279.16292031485
 40
16
 41
1
 50
0
  1
70
  0
TEXT
  8
_0-9__1-9_
 62
    7
 10
1211.90910320279
 20
1279.7228303148499
 40
16
 41
1
 50
0
  1
70
  0
TEXT
  8
_0-9__1-9_
 62
    7
 10
1564.3277002727118
 20
1279.16292031485
 40
16
 41
1
 50
0
  1
70
  0
TEXT
  8
_0-9__1-9_
 62
    7
 10
1424.2479854195799
 20
1279.7228303148499
 40
16
 41
1
 50
0
  1
70
  0
LINE
  8
_0-9__1-9_
  6
CONTINUOUS
 62
    7
 10
2865.7896644036068
 20
2057.12483539094
 11
2865.7896644036068
 21
1770.12483539094
  0
POINT
  8
_0-9__1-9_
 62
    7
 10
3054.0430718163129
 20
2056.6248353909391
  0
POINT
  8
_0-9__1-9_
 62
    7
 10
3054.0430718163129
 20
2043.62483539094
  0
POINT
  8
_0-9__1-9_
 62
    7
 10
3054.0430718163129
 20
2009.6248353909391
  0
POINT
  8
_0-9__1-9_
 62
    7
 10
3054.0430718163129
 20
1996.62483539094
  0
LINE
  8
_0-9__1-9_
  6
CONTINUOUS
 62
    7
 10
3054.0430718163129
 20
2056.6248353909391
 11
3054.0430718163129
 21
1996.62483539094
  0
CIRCLE
  8
_0-9__1-9_
  6
CONTINUOUS
 62
    7
 10
3054.0430718163129
 20
2056.6248353909391
 40
0.5
  0
CIRCLE
  8
_0-9__1-9_
  6
CONTINUOUS
 62
    7
 10
3054.0430718163129
 20
2056.6248353909391
 40
0.25
  0
CIRCLE
  8
_0-9__1-9_
  6
CONTINUOUS
 62
    7
 10
3054.0430718163129
 20
2043.62483539094
 40
0.5
  0
CIRCLE
  8
_0-9__1-9_
  6
CONTINUOUS
 62
    7
 10
3054.0430718163129
 20
2043.62483539094
 40
0.25
  0
CIRCLE
  8
_0-9__1-9_
  6
CONTINUOUS
 62
    7
 10
3054.0430718163129
 20
2009.6248353909391
 40
0.5
  0
CIRCLE
  8
_0-9__1-9_
  6
CONTINUOUS
 62
    7
 10
3054.0430718163129
 20
2009.6248353909391
 40
0.25
  0
CIRCLE
  8
_0-9__1-9_
  6
CONTINUOUS
 62
    7
 10
3054.0430718163129
 20
1996.62483539094
 40
0.5
  0
CIRCLE
  8
_0-9__1-9_
  6
CONTINUOUS
 62
    7
 10
3054.0430718163129
 20
1996.62483539094
 40
0.25
  0
LINE
  8
_0-9__1-9_
  6
CONTINUOUS
 62
    7
 10
2985.7896644036068
 20
1739.62483539094
 11
2985.7896644036068
 21
1709.6248353909389
  0
LINE
  8
_0-9__1-9_
  6
CONTINUOUS
 62
    7
 10
2925.7896644036068
 20
1739.62483539094
 11
2925.7896644036068
 21
1709.6248353909389
  0
LINE
  8
_0-9__1-9_
  6
CONTINUOUS
 62
    7
 10
2925.7896644036068
 20
1709.6248353909389
 11
2985.7896644036068
 21
1709.6248353909389
  0
LINE
  8
_0-9__1-9_
  6
CONTINUOUS
 62
    7
 10
2865.7896644036068
 20
1790.12483539094
 11
2895.7896644036068
 21
1790.12483539094
  0
LINE
  8
_0-9__1-9_
  6
CONTINUOUS
 62
    7
 10
2865.7896644036068
 20
1802.12483539094
 11
2895.7896644036068
 21
1802.12483539094
  0
LINE
  8
_0-9__1-9_
  6
CONTINUOUS
 62
    7
 10
2865.7896644036068
 20
1847.12483539094
 11
2895.7896644036068
 21
1847.12483539094
  0
LINE
  8
_0-9__1-9_
  6
CONTINUOUS
 62
    7
 10
2865.7896644036068
 20
1859.62483539094
 11
2895.7896644036068
 21
1859.62483539094
  0
LINE
  8
_0-9__1-9_
  6
CONTINUOUS
 62
    7
 10
2865.7896644036068
 20
1901.62483539094
 11
2895.7896644036068
 21
1901.62483539094
  0
LINE
  8
_0-9__1-9_
  6
CONTINUOUS
 62
    7
 10
2865.7896644036068
 20
1914.1248353909391
 11
2895.7896644036068
 21
1914.1248353909391
  0
LINE
  8
_0-9__1-9_
  6
CONTINUOUS
 62
    7
 10
2865.7896644036068
 20
1959.12483539094
 11
2895.7896644036068
 21
1959.12483539094
  0
LINE
  8
_0-9__1-9_
  6
CONTINUOUS
 62
    7
 10
2865.7896644036068
 20
1971.62483539094
 11
2895.7896644036068
 21
1971.62483539094
  0
POINT
  8
_0-9__1-9_
 62
    7
 10
2865.7896644036068
 20
1971.62483539094
  0
POINT
  8
_0-9__1-9_
 62
    7
 10
2865.7896644036068
 20
1959.12483539094
  0
POINT
  8
_0-9__1-9_
 62
    7
 10
2865.7896644036068
 20
1914.1248353909391
  0
POINT
  8
_0-9__1-9_
 62
    7
 10
2865.7896644036068
 20
1901.62483539094
  0
POINT
  8
_0-9__1-9_
 62
    7
 10
2865.7896644036068
 20
1859.62483539094
  0
POINT
  8
_0-9__1-9_
 62
    7
 10
2865.7896644036068
 20
1847.12483539094
  0
POINT
  8
_0-9__1-9_
 62
    7
 10
2865.7896644036068
 20
1802.12483539094
  0
POINT
  8
_0-9__1-9_
 62
    7
 10
2865.7896644036068
 20
1790.12483539094
  0
POINT
  8
_0-9__1-9_
 62
    7
 10
2865.7896644036068
 20
1770.12483539094
  0
POINT
  8
_0-9__1-9_
 62
    7
 10
2925.7896644036068
 20
1709.6248353909389
  0
POINT
  8
_0-9__1-9_
 62
    7
 10
2985.7896644036068
 20
1709.6248353909389
  0
TEXT
  8
_0-9__1-9_
 62
    7
 10
2862.1577130429191
 20
1812.1729505269318
 40
16
 41
1
 50
90
  1
45
  0
CIRCLE
  8
_0-9__1-9_
  6
CONTINUOUS
 62
    7
 10
2865.7896644036068
 20
1971.62483539094
 40
0.4999999999999998
  0
CIRCLE
  8
_0-9__1-9_
  6
CONTINUOUS
 62
    7
 10
2865.7896644036068
 20
1971.62483539094
 40
0.2499999999999998
  0
CIRCLE
  8
_0-9__1-9_
  6
CONTINUOUS
 62
    7
 10
2865.7896644036068
 20
1959.12483539094
 40
0.4999999999999998
  0
CIRCLE
  8
_0-9__1-9_
  6
CONTINUOUS
 62
    7
 10
2865.7896644036068
 20
1959.12483539094
 40
0.2499999999999998
  0
CIRCLE
  8
_0-9__1-9_
  6
CONTINUOUS
 62
    7
 10
2865.7896644036068
 20
1914.1248353909391
 40
0.4999999999999998
  0
CIRCLE
  8
_0-9__1-9_
  6
CONTINUOUS
 62
    7
 10
2865.7896644036068
 20
1914.1248353909391
 40
0.2499999999999998
  0
CIRCLE
  8
_0-9__1-9_
  6
CONTINUOUS
 62
    7
 10
2865.7896644036068
 20
1901.62483539094
 40
0.4999999999999998
  0
CIRCLE
  8
_0-9__1-9_
  6
CONTINUOUS
 62
    7
 10
2865.7896644036068
 20
1901.62483539094
 40
0.2499999999999998
  0
CIRCLE
  8
_0-9__1-9_
  6
CONTINUOUS
 62
    7
 10
2865.7896644036068
 20
1859.62483539094
 40
0.4999999999999998
  0
CIRCLE
  8
_0-9__1-9_
  6
CONTINUOUS
 62
    7
 10
2865.7896644036068
 20
1859.62483539094
 40
0.2499999999999998
  0
CIRCLE
  8
_0-9__1-9_
  6
CONTINUOUS
 62
    7
 10
2865.7896644036068
 20
1847.12483539094
 40
0.4999999999999998
  0
CIRCLE
  8
_0-9__1-9_
  6
CONTINUOUS
 62
    7
 10
2865.7896644036068
 20
1847.12483539094
 40
0.2499999999999998
  0
CIRCLE
  8
_0-9__1-9_
  6
CONTINUOUS
 62
    7
 10
2865.7896644036068
 20
1802.12483539094
 40
0.4999999999999998
  0
CIRCLE
  8
_0-9__1-9_
  6
CONTINUOUS
 62
    7
 10
2865.7896644036068
 20
1802.12483539094
 40
0.2499999999999998
  0
CIRCLE
  8
_0-9__1-9_
  6
CONTINUOUS
 62
    7
 10
2865.7896644036068
 20
1790.12483539094
 40
0.4999999999999998
  0
CIRCLE
  8
_0-9__1-9_
  6
CONTINUOUS
 62
    7
 10
2865.7896644036068
 20
1790.12483539094
 40
0.2499999999999998
  0
CIRCLE
  8
_0-9__1-9_
  6
CONTINUOUS
 62
    7
 10
2865.7896644036068
 20
1770.12483539094
 40
0.4999999999999998
  0
CIRCLE
  8
_0-9__1-9_
  6
CONTINUOUS
 62
    7
 10
2865.7896644036068
 20
1770.12483539094
 40
0.2499999999999998
  0
CIRCLE
  8
_0-9__1-9_
  6
CONTINUOUS
 62
    7
 10
2925.7896644036068
 20
1709.6248353909389
 40
0.4999999999999998
  0
CIRCLE
  8
_0-9__1-9_
  6
CONTINUOUS
 62
    7
 10
2925.7896644036068
 20
1709.6248353909389
 40
0.2499999999999998
  0
CIRCLE
  8
_0-9__1-9_
  6
CONTINUOUS
 62
    7
 10
2985.7896644036068
 20
1709.6248353909389
 40
0.4999999999999998
  0
CIRCLE
  8
_0-9__1-9_
  6
CONTINUOUS
 62
    7
 10
2985.7896644036068
 20
1709.6248353909389
 40
0.2499999999999998
  0
POINT
  8
_0-9__1-9_
 62
    7
 10
2865.7896644036068
 20
2057.12483539094
  0
CIRCLE
  8
_0-9__1-9_
  6
CONTINUOUS
 62
    7
 10
2865.7896644036068
 20
2057.12483539094
 40
0.4999999999999998
  0
CIRCLE
  8
_0-9__1-9_
  6
CONTINUOUS
 62
    7
 10
2865.7896644036068
 20
2057.12483539094
 40
0.2499999999999998
  0
LINE
  8
_0-9__1-9_
  6
CONTINUOUS
 62
    7
 10
2865.7896644036068
 20
1052.4999999999991
 11
2865.7896644036068
 21
1339.5
  0
POINT
  8
_0-9__1-9_
 62
    7
 10
2865.7896644036068
 20
1052.4999999999991
  0
POINT
  8
_0-9__1-9_
 62
    7
 10
2865.7896644036068
 20
1072.4999999999991
  0
LINE
  8
_0-9__1-9_
  6
CONTINUOUS
 62
    7
 10
2836.666191766607
 20
1052.4999999999991
 11
2895.7896644036068
 21
1052.4999999999991
  0
LINE
  8
_0-9__1-9_
  6
CONTINUOUS
 62
    7
 10
2865.7896644036068
 20
1072.4999999999991
 11
2895.7896644036068
 21
1072.4999999999991
  0
TEXT
  8
_0-9__1-9_
 62
    7
 10
2862.4749484119561
 20
1051.9470322693151
 40
16
 41
1
 50
90
  1
20
  0
POINT
  8
_0-9__1-9_
 62
    7
 10
2865.7896644036068
 20
1085.4999999999991
  0
LINE
  8
_0-9__1-9_
  6
CONTINUOUS
 62
    7
 10
2865.7896644036068
 20
1085.4999999999991
 11
2895.7896644036068
 21
1085.4999999999991
  0
TEXT
  8
_0-9__1-9_
 62
    7
 10
2861.4956775176797
 20
1071.6884188027789
 40
16
 41
1
 50
90
  1
13
  0
POINT
  8
_0-9__1-9_
 62
    7
 10
2865.7896644036068
 20
1133.4999999999991
  0
LINE
  8
_0-9__1-9_
  6
CONTINUOUS
 62
    7
 10
2865.7896644036068
 20
1133.4999999999991
 11
2895.7896644036068
 21
1133.4999999999991
  0
TEXT
  8
_0-9__1-9_
 62
    7
 10
2861.654608727601
 20
1099.4880037717589
 40
16
 41
1
 50
90
  1
48
  0
POINT
  8
_0-9__1-9_
 62
    7
 10
2865.7896644036068
 20
1146.4999999999991
  0
LINE
  8
_0-9__1-9_
  6
CONTINUOUS
 62
    7
 10
2865.7896644036068
 20
1146.4999999999991
 11
2895.7896644036068
 21
1146.4999999999991
  0
TEXT
  8
_0-9__1-9_
 62
    7
 10
2861.654608727601
 20
1129.9880037717589
 40
16
 41
1
 50
90
  1
13
  0
POINT
  8
_0-9__1-9_
 62
    7
 10
2865.7896644036068
 20
1196.5
  0
LINE
  8
_0-9__1-9_
  6
CONTINUOUS
 62
    7
 10
2865.7896644036068
 20
1196.5
 11
2895.7896644036068
 21
1196.5
  0
TEXT
  8
_0-9__1-9_
 62
    7
 10
2861.654608727601
 20
1161.4880037717589
 40
16
 41
1
 50
90
  1
50
  0
POINT
  8
_0-9__1-9_
 62
    7
 10
2865.7896644036068
 20
1209.5
  0
LINE
  8
_0-9__1-9_
  6
CONTINUOUS
 62
    7
 10
2865.7896644036068
 20
1209.5
 11
2895.7896644036068
 21
1209.5
  0
TEXT
  8
_0-9__1-9_
 62
    7
 10
2861.8134228611239
 20
1193.6240852745589
 40
16
 41
1
 50
90
  1
13
  0
POINT
  8
_0-9__1-9_
 62
    7
 10
2865.7896644036068
 20
1259.5
  0
LINE
  8
_0-9__1-9_
  6
CONTINUOUS
 62
    7
 10
2865.7896644036068
 20
1259.5
 11
2895.7896644036068
 21
1259.5
  0
TEXT
  8
_0-9__1-9_
 62
    7
 10
2861.8134228611239
 20
1225.12408527456
 40
16
 41
1
 50
90
  1
50
  0
POINT
  8
_0-9__1-9_
 62
    7
 10
2865.7896644036068
 20
1272.5
  0
LINE
  8
_0-9__1-9_
  6
CONTINUOUS
 62
    7
 10
2865.7896644036068
 20
1272.5
 11
2895.7896644036068
 21
1272.5
  0
TEXT
  8
_0-9__1-9_
 62
    7
 10
2861.8134228611239
 20
1256.6240852745589
 40
16
 41
1
 50
90
  1
13
  0
TEXT
  8
_0-9__1-9_
 62
    7
 10
2862.4465702415191
 20
1295.9941966629031
 40
16
 41
1
 50
90
  1
67
  0
POINT
  8
_0-9__1-9_
 62
    7
 10
2865.7896644036068
 20
1339.5
  0
LINE
  8
_0-9__1-9_
  6
CONTINUOUS
 62
    7
 10
2836.666191766607
 20
1339.5
 11
2895.7896644036068
 21
1339.5
  0
LINE
  8
_0-9__1-9_
  6
CONTINUOUS
 62
    7
 10
3093.7896644036064
 20
1339.5
 11
3093.7896644036064
 21
1279.5
  0
POINT
  8
_0-9__1-9_
 62
    7
 10
3093.7896644036064
 20
1339.5
  0
POINT
  8
_0-9__1-9_
 62
    7
 10
3093.7896644036064
 20
1326.5
  0
POINT
  8
_0-9__1-9_
 62
    7
 10
3093.7896644036064
 20
1292.5
  0
POINT
  8
_0-9__1-9_
 62
    7
 10
3093.7896644036064
 20
1279.5
  0
LINE
  8
_0-9__1-9_
  6
CONTINUOUS
 62
    7
 10
1119.2948127262739
 20
1276.0000150000001
 11
1119.2948127262739
 21
1219.0000049999999
  0
LINE
  8
_0-9__1-9_
  6
CONTINUOUS
 62
    7
 10
1014.2947627262738
 20
1230.800045
 11
1044.2947627262738
 21
1230.800045
  0
CIRCLE
  8
_0-9__1-9_
  6
CONTINUOUS
 62
    7
 10
1014.2948247262738
 20
1230.800045
 40
0.5999999999999997
  0
LINE
  8
_0-9__1-9_
  6
CONTINUOUS
 62
    7
 10
1583.2946927262751
 20
1246.222784554117
 11
1583.2946927262751
 21
1231.5189496877349
  0
LINE
  8
_0-9__1-9_
  6
CONTINUOUS
 62
    7
 10
1583.2946927262751
 20
1246.222784554117
 11
1609.2946927262751
 21
1246.222784554117
  0
LINE
  8
_0-9__1-9_
  6
CONTINUOUS
 62
    7
 10
1609.2945527262741
 20
1276.0000150000001
 11
1609.2945527262741
 21
1219.0000049999999
  0
CIRCLE
  8
_0-9__1-9_
  6
CONTINUOUS
 62
    7
 10
1609.2946027262751
 20
1246.2228345541171
 40
0.5999999999999997
  0
CIRCLE
  8
_0-9__1-9_
  6
CONTINUOUS
 62
    7
 10
1583.2947427262748
 20
1246.2228345541171
 40
0.5999999999999997
  0
TEXT
  8
_0-9__1-9_
 62
    7
 10
1586.0430181949059
 20
1249.55351374211
 40
16
 41
1
 50
0
  1
26
  0
LINE
  8
_0-9__1-9_
  6
CONTINUOUS
 62
    7
 10
1074.2947127262751
 20
1075.9999900000009
 11
1644.2947127262751
 21
1075.9999900000009
  0
CIRCLE
  8
_0-9__1-9_
  6
CONTINUOUS
 62
    7
 10
1074.2947127262751
 20
1075.9999900000009
 40
0.5999999999999997
  0
LINE
  8
_0-9__1-9_
  6
CONTINUOUS
 62
    7
 10
1624.2947127262751
 20
1075.9999900000009
 11
1624.2947627262738
 21
1135.9999900000009
  0
CIRCLE
  8
_0-9__1-9_
  6
CONTINUOUS
 62
    7
 10
1624.2947127262751
 20
1075.9999900000009
 40
0.5999999999999997
  0
LINE
  8
_0-9__1-9_
  6
CONTINUOUS
 62
    7
 10
1704.2947627262747
 20
1225.999965
 11
1674.2947627262747
 21
1225.999965
  0
LINE
  8
_0-9__1-9_
  6
CONTINUOUS
 62
    7
 10
1704.2947627262747
 20
1165.9998850000011
 11
1674.2947627262747
 21
1165.9998850000011
  0
TEXT
  8
_0-9__1-9_
 62
    7
 10
1701.2919597713021
 20
1164.6204245575279
 40
16
 41
1
 50
90
  1
17
  0
TEXT
  8
_0-9__1-9_
 62
    7
 10
1744.665002786181
 20
1632.0847520285411
 40
16
 41
1
 50
90
  1
18
  0
TEXT
  8
_0-9__1-9_
 62
    7
 10
1744.9583410559057
 20
1574.4437820273031
 40
16
 41
1
 50
90
  1
18
  0
CIRCLE
  8
_0-9__1-9_
  6
CONTINUOUS
 62
    7
 10
1749.2948627262749
 20
1649.4999
 40
0.5999999999999997
  0
CIRCLE
  8
_0-9__1-9_
  6
CONTINUOUS
 62
    7
 10
1749.2948627262749
 20
1631.4999
 40
0.5999999999999997
  0
CIRCLE
  8
_0-9__1-9_
  6
CONTINUOUS
 62
    7
 10
1749.2948627262749
 20
1592.4998999999989
 40
0.5999999999999997
  0
CIRCLE
  8
_0-9__1-9_
  6
CONTINUOUS
 62
    7
 10
1749.2948627262749
 20
1574.4999
 40
0.5999999999999997
  0
LINE
  8
_0-9__1-9_
  6
CONTINUOUS
 62
    7
 10
1719.2947627262747
 20
1574.5
 11
1749.2947627262738
 21
1574.5
  0
LINE
  8
_0-9__1-9_
  6
CONTINUOUS
 62
    7
 10
1719.2948627262749
 20
1649.4999
 11
1749.2948627262749
 21
1649.4999
  0
LINE
  8
_0-9__1-9_
  6
CONTINUOUS
 62
    7
 10
-164.99623636463389
 20
1642.000004999999
 11
-134.99623636463389
 21
1642.000004999999
  0
LINE
  8
_0-9__1-9_
  6
CONTINUOUS
 62
    7
 10
-164.99623636463389
 20
1582.0000049999999
 11
-134.99623636463389
 21
1582.0000049999999
  0
LINE
  8
_0-9__1-9_
  6
CONTINUOUS
 62
    7
 10
264.87749028632015
 20
394.0000100000002
 11
264.87750028632081
 21
333.99999997893769
  0
LINE
  8
_0-9__1-9_
  6
CONTINUOUS
 62
    7
 10
-709.9961463646332
 20
1286.19795
 11
-129.99614636463389
 21
1286.19795
  0
LINE
  8
_0-9__1-9_
  6
CONTINUOUS
 62
    7
 10
-114.99608636463404
 20
869.99995999999987
 11
-709.9961463646332
 21
869.99995999999987
  0
LINE
  8
_0-9__1-9_
  6
CONTINUOUS
 62
    7
 10
-709.99615636463341
 20
454.00004999999987
 11
185.00387363536697
 21
454.00004999999987
  0
LINE
  8
_0-9__1-9_
  6
CONTINUOUS
 62
    7
 10
1074.2947627262747
 20
2118
 11
2269.2947627262747
 21
2118
  0
TEXT
  8
_0-9__1-9_
 62
    7
 10
1082.87874857218
 20
2136.2016452962221
 40
16
 41
1
 50
0
  1
14.5
  0
LINE
  8
_0-9__1-9_
  6
CONTINUOUS
 62
    7
 10
-294.99618636463401
 20
1938.0000049999999
 11
-294.99618636463401
 21
1968.0000150000001
  0
LINE
  8
_0-9__1-9_
  6
CONTINUOUS
 62
    7
 10
-194.99619636463422
 20
1522.0000049999999
 11
-194.99619636463422
 21
1552.0000150000001
  0
LINE
  8
_0-9__1-9_
  6
CONTINUOUS
 62
    7
 10
-109.99614636463298
 20
1105.5999900000029
 11
-109.99614636463298
 21
1135.600000000004
  0
LINE
  8
_0-9__1-9_
  6
CONTINUOUS
 62
    7
 10
-94.996086364634039
 20
689.60006999999973
 11
-94.996086364634039
 21
719.60007999999993
  0
LINE
  8
_0-9__1-9_
  6
CONTINUOUS
 62
    7
 10
205.00387363536697
 20
274
 11
205.00387363536697
 21
304.00001000000032
  0
LINE
  8
_0-9__1-9_
  6
CONTINUOUS
 62
    7
 10
1689.2947627262738
 20
1514.5
 11
1689.2947627262738
 21
1544.50001
  0
LINE
  8
_0-9__1-9_
  6
CONTINUOUS
 62
    7
 10
2294.2947627262738
 20
1938
 11
2294.2947627262738
 21
1968
  0
LINE
  8
_0-9__1-9_
  6
CONTINUOUS
 62
    7
 10
2925.7896644036068
 20
2116.62483539094
 11
2925.7896644036068
 21
2086.62483539094
  0
POINT
  8
_0-9__1-9_
 62
    7
 10
2925.7896644036068
 20
2116.62483539094
  0
CIRCLE
  8
_0-9__1-9_
  6
CONTINUOUS
 62
    7
 10
2925.7896644036068
 20
2116.62483539094
 40
0.4999999999999998
  0
CIRCLE
  8
_0-9__1-9_
  6
CONTINUOUS
 62
    7
 10
2925.7896644036068
 20
2116.62483539094
 40
0.2499999999999998
  0
LINE
  8
_0-9__1-9_
  6
CONTINUOUS
 62
    7
 10
3212.7896644036064
 20
2116.62483539094
 11
2925.7896644036068
 21
2116.62483539094
  0
POINT
  8
_0-9__1-9_
 62
    7
 10
3212.7896644036064
 20
2116.62483539094
  0
CIRCLE
  8
_0-9__1-9_
  6
CONTINUOUS
 62
    7
 10
3212.7896644036064
 20
2116.62483539094
 40
0.4999999999999998
  0
CIRCLE
  8
_0-9__1-9_
  6
CONTINUOUS
 62
    7
 10
3212.7896644036064
 20
2116.62483539094
 40
0.2499999999999998
  0
LINE
  8
_0-9__1-9_
  6
CONTINUOUS
 62
    7
 10
3212.7896644036064
 20
2116.62483539094
 11
3212.7896644036064
 21
2086.62483539094
  0
TEXT
  8
_0-9__1-9_
 62
    7
 10
3057.5764904140383
 20
2120.932933391216
 40
16
 41
1
 50
0
  1
287
  0
LINE
  8
_0-9__1-9_
  6
CONTINUOUS
 62
    7
 10
2925.7896644036068
 20
1399.5
 11
2925.7896644036068
 21
1369.5
  0
POINT
  8
_0-9__1-9_
 62
    7
 10
2925.7896644036068
 20
1399.5
  0
CIRCLE
  8
_0-9__1-9_
  6
CONTINUOUS
 62
    7
 10
2925.7896644036068
 20
1399.5
 40
0.4999999999999998
  0
CIRCLE
  8
_0-9__1-9_
  6
CONTINUOUS
 62
    7
 10
2925.7896644036068
 20
1399.5
 40
0.2499999999999998
  0
LINE
  8
_0-9__1-9_
  6
CONTINUOUS
 62
    7
 10
3212.7896644036064
 20
1399.5
 11
2925.7896644036068
 21
1399.5
  0
POINT
  8
_0-9__1-9_
 62
    7
 10
3212.7896644036064
 20
1399.5
  0
CIRCLE
  8
_0-9__1-9_
  6
CONTINUOUS
 62
    7
 10
3212.7896644036064
 20
1399.5
 40
0.4999999999999998
  0
CIRCLE
  8
_0-9__1-9_
  6
CONTINUOUS
 62
    7
 10
3212.7896644036064
 20
1399.5
 40
0.2499999999999998
  0
LINE
  8
_0-9__1-9_
  6
CONTINUOUS
 62
    7
 10
3212.7896644036064
 20
1399.5
 11
3212.7896644036064
 21
1369.5
  0
TEXT
  8
_0-9__1-9_
 62
    7
 10
3057.5764904140383
 20
1403.808098000276
 40
16
 41
1
 50
0
  1
287
  0
LINE
  8
_0-9__1-9_
  6
CONTINUOUS
 62
    7
 10
2925.7896644036068
 20
992.49999999999909
 11
2985.7896644036068
 21
992.49999999999909
  0
LINE
  8
_0-9__1-9_
  6
CONTINUOUS
 62
    7
 10
2985.7896644036068
 20
1022.4999999999991
 11
2985.7896644036068
 21
992.49999999999909
  0
LINE
  8
_0-9__1-9_
  6
CONTINUOUS
 62
    7
 10
2925.7896644036068
 20
1022.4999999999991
 11
2925.7896644036068
 21
992.49999999999909
  0
POINT
  8
_0-9__1-9_
 62
    7
 10
2925.7896644036068
 20
992.49999999999909
  0
POINT
  8
_0-9__1-9_
 62
    7
 10
2985.7896644036068
 20
992.49999999999909
  0
CIRCLE
  8
_0-9__1-9_
  6
CONTINUOUS
 62
    7
 10
2925.7896644036068
 20
992.49999999999909
 40
0.4999999999999998
  0
CIRCLE
  8
_0-9__1-9_
  6
CONTINUOUS
 62
    7
 10
2925.7896644036068
 20
992.49999999999909
 40
0.2499999999999998
  0
CIRCLE
  8
_0-9__1-9_
  6
CONTINUOUS
 62
    7
 10
2985.7896644036068
 20
992.49999999999909
 40
0.4999999999999998
  0
CIRCLE
  8
_0-9__1-9_
  6
CONTINUOUS
 62
    7
 10
2985.7896644036068
 20
992.49999999999909
 40
0.2499999999999998
  0
POINT
  8
_0-9__1-9_
 62
    7
 10
1074.2947627262738
 20
1514.500000000005
  0
POINT
  8
_0-9__1-9_
 62
    7
 10
1214.2947627262738
 20
1649.5
  0
POINT
  8
_0-9__1-9_
 62
    7
 10
1214.2947627262738
 20
1634.5
  0
POINT
  8
_0-9__1-9_
 62
    7
 10
1214.2947627262738
 20
1589.5
  0
POINT
  8
_0-9__1-9_
 62
    7
 10
1214.2947627262738
 20
1574.5
  0
POINT
  8
_0-9__1-9_
 62
    7
 10
1014.2947627262746
 20
1649.5
  0
POINT
  8
_0-9__1-9_
 62
    7
 10
1014.2947627262746
 20
1574.5
  0
POINT
  8
_0-9__1-9_
 62
    7
 10
1669.2947627262738
 20
1709.5000049999999
  0
POINT
  8
_0-9__1-9_
 62
    7
 10
1669.2947627262738
 20
1514.5
  0
POINT
  8
_0-9__1-9_
 62
    7
 10
1749.2948627262749
 20
1574.4999
  0
POINT
  8
_0-9__1-9_
 62
    7
 10
1014.2947627262738
 20
1165.9999949999999
  0
POINT
  8
_0-9__1-9_
 62
    7
 10
1074.2947627262747
 20
1276.0000150000001
  0
POINT
  8
_0-9__1-9_
 62
    7
 10
1704.2947927262749
 20
1182.9999250000001
  0
POINT
  8
_0-9__1-9_
 62
    7
 10
1329.2948127262739
 20
1276.0000150000001
  0
POINT
  8
_0-9__1-9_
 62
    7
 10
1469.2947727262749
 20
1276.0000150000001
  0
POINT
  8
_0-9__1-9_
 62
    7
 10
1399.2947927262749
 20
1276.0000150000001
  0
POINT
  8
_0-9__1-9_
 62
    7
 10
1624.2947927262749
 20
1276.0000150000001
  0
POINT
  8
_0-9__1-9_
 62
    7
 10
1609.2946927262751
 20
1276.0000150000001
  0
POINT
  8
_0-9__1-9_
 62
    7
 10
1539.2949027262748
 20
1276.0000150000001
  0
POINT
  8
_0-9__1-9_
 62
    7
 10
1259.2948027262737
 20
1276.0000150000001
  0
POINT
  8
_0-9__1-9_
 62
    7
 10
1106.2947727262749
 20
1105.9999900000009
  0
POINT
  8
_0-9__1-9_
 62
    7
 10
1234.2947727262749
 20
1105.9999900000009
  0
POINT
  8
_0-9__1-9_
 62
    7
 10
1704.2947927262749
 20
1225.999965
  0
POINT
  8
_0-9__1-9_
 62
    7
 10
1704.2947927262749
 20
1208.9999149999999
  0
POINT
  8
_0-9__1-9_
 62
    7
 10
1164.2947627262747
 20
1105.9999900000009
  0
POINT
  8
_0-9__1-9_
 62
    7
 10
1246.2948127262748
 20
1105.9999900000009
  0
POINT
  8
_0-9__1-9_
 62
    7
 10
1094.2947627262738
 20
1105.9999900000009
  0
POINT
  8
_0-9__1-9_
 62
    7
 10
1456.2948327262748
 20
1105.9999900000009
  0
POINT
  8
_0-9__1-9_
 62
    7
 10
1304.2948027262737
 20
1105.9999900000009
  0
POINT
  8
_0-9__1-9_
 62
    7
 10
1526.2947627262747
 20
1105.9999900000009
  0
POINT
  8
_0-9__1-9_
 62
    7
 10
1074.2947627262747
 20
1105.9999900000009
  0
POINT
  8
_0-9__1-9_
 62
    7
 10
1596.294752726275
 20
1105.9999900000009
  0
POINT
  8
_0-9__1-9_
 62
    7
 10
1612.294752726275
 20
1105.9999900000009
  0
POINT
  8
_0-9__1-9_
 62
    7
 10
1176.294822726275
 20
1105.9999900000009
  0
POINT
  8
_0-9__1-9_
 62
    7
 10
1374.2947127262751
 20
1105.9999900000009
  0
POINT
  8
_0-9__1-9_
 62
    7
 10
1584.2947627262738
 20
1105.9999900000009
  0
POINT
  8
_0-9__1-9_
 62
    7
 10
1514.294822726275
 20
1105.9999900000009
  0
POINT
  8
_0-9__1-9_
 62
    7
 10
1644.2947627262747
 20
1075.9999900000009
  0
POINT
  8
_0-9__1-9_
 62
    7
 10
1624.2947927262749
 20
1105.9999900000009
  0
POINT
  8
_0-9__1-9_
 62
    7
 10
1014.2947627262738
 20
1226.000045
  0
POINT
  8
_0-9__1-9_
 62
    7
 10
1189.294772726274
 20
1276.0000150000001
  0
POINT
  8
_0-9__1-9_
 62
    7
 10
1119.2947727262749
 20
1276.0000150000001
  0
POINT
  8
_0-9__1-9_
 62
    7
 10
1444.294842726275
 20
1105.9999900000009
  0
POINT
  8
_0-9__1-9_
 62
    7
 10
1386.2948027262737
 20
1105.9999900000009
  0
POINT
  8
_0-9__1-9_
 62
    7
 10
1316.294792726274
 20
1105.9999900000009
  0
POINT
  8
_0-9__1-9_
 62
    7
 10
1014.2947627262738
 20
1230.8000950000001
  0
POINT
  8
_0-9__1-9_
 62
    7
 10
1609.2945527262741
 20
1246.222784554117
  0
POINT
  8
_0-9__1-9_
 62
    7
 10
1583.2946927262751
 20
1246.222784554117
  0
POINT
  8
_0-9__1-9_
 62
    7
 10
1074.2947627262747
 20
1075.9999400000011
  0
POINT
  8
_0-9__1-9_
 62
    7
 10
1624.2947627262738
 20
1075.9999900000009
  0
POINT
  8
_0-9__1-9_
 62
    7
 10
1749.2947627262738
 20
1649.5
  0
POINT
  8
_0-9__1-9_
 62
    7
 10
1749.2947627262738
 20
1631.5
  0
POINT
  8
_0-9__1-9_
 62
    7
 10
1749.2947627262738
 20
1592.5
  0
POINT
  8
_0-9__1-9_
 62
    7
 10
1749.2947627262738
 20
1574.5
  0
TEXT
  8
_0-9__1-9_
 62
    7
 10
-239.10543708691807
 20
2019.5617317016024
 40
16
 41
1
 50
90
  1
26
  0
TEXT
  8
_0-9__1-9_
 62
    7
 10
-239.61332176988685
 20
1998.5691648055563
 40
16
 41
1
 50
90
  1
17
  0
TEXT
  8
_0-9__1-9_
 62
    7
 10
-239.44402687556408
 20
2045.9717352159828
 40
16
 41
1
 50
90
  1
17
  0
TEXT
  8
_0-9__1-9_
 62
    7
 10
-576.94606636463459
 20
2020.0272926609905
 40
16
 41
1
 50
90
  1
34
  0
TEXT
  8
_0-9__1-9_
 62
    7
 10
-576.72817636463378
 20
1998.3199251000251
 40
16
 41
1
 50
90
  1
13
  0
TEXT
  8
_0-9__1-9_
 62
    7
 10
-576.94606636463459
 20
2045.6378480632907
 40
16
 41
1
 50
90
  1
13
  0
TEXT
  8
_0-9__1-9_
 62
    7
 10
-583.62760636463418
 20
1629.4792550247869
 40
16
 41
1
 50
90
  1
13
  0
TEXT
  8
_0-9__1-9_
 62
    7
 10
-583.90513636463356
 20
1604.2190460010165
 40
16
 41
1
 50
90
  1
34
  0
TEXT
  8
_0-9__1-9_
 62
    7
 10
-583.90513636463356
 20
1582.5492995276786
 40
16
 41
1
 50
90
  1
13
  0
TEXT
  8
_0-9__1-9_
 62
    7
 10
-138.20097912524579
 20
1628.7130192791274
 40
16
 41
1
 50
90
  1
17
  0
TEXT
  8
_0-9__1-9_
 62
    7
 10
-138.55481912524601
 20
1582.4578920413337
 40
16
 41
1
 50
90
  1
17
  0
TEXT
  8
_0-9__1-9_
 62
    7
 10
-138.63638594777331
 20
1604.2969334089946
 40
16
 41
1
 50
90
  1
26
  0
TEXT
  8
_0-9__1-9_
 62
    7
 10
-53.611226347963338
 20
1187.090828211868
 40
16
 41
1
 50
90
  1
26
  0
TEXT
  8
_0-9__1-9_
 62
    7
 10
-572.20438738507119
 20
1166.632603143132
 40
16
 41
1
 50
89.999862000001741
  1
13
  0
TEXT
  8
_0-9__1-9_
 62
    7
 10
-572.0074692180533
 20
1187.3994435134139
 40
16
 41
1
 50
89.999861999998487
  1
34
  0
TEXT
  8
_0-9__1-9_
 62
    7
 10
-572.20438738507119
 20
1214.1198210007201
 40
16
 41
1
 50
89.999862000001741
  1
13
  0
TEXT
  8
_0-9__1-9_
 62
    7
 10
-572.06476458989528
 20
772.47617415692378
 40
16
 41
1
 50
89.999862000000107
  1
34
  0
TEXT
  8
_0-9__1-9_
 62
    7
 10
-572.01984006980456
 20
797.41895043673549
 40
16
 41
1
 50
90
  1
13
  0
TEXT
  8
_0-9__1-9_
 62
    7
 10
-572.15766564622754
 20
749.49439225258288
 40
16
 41
1
 50
89.999862000000107
  1
13
  0
TEXT
  8
_0-9__1-9_
 62
    7
 10
-39.008783313161985
 20
771.37575252672139
 40
16
 41
1
 50
90
  1
26
  0
TEXT
  8
_0-9__1-9_
 62
    7
 10
-38.93961576513243
 20
792.58699199460136
 40
16
 41
1
 50
90
  1
17
  0
TEXT
  8
_0-9__1-9_
 62
    7
 10
260.56631981356691
 20
355.74069513146935
 40
16
 41
1
 50
90
  1
26
  0
TEXT
  8
_0-9__1-9_
 62
    7
 10
-578.15755636463336
 20
356.60436361578854
 40
16
 41
1
 50
90
  1
32
  0
TEXT
  8
_0-9__1-9_
 62
    7
 10
-578.15755636463336
 20
333.10411609758387
 40
16
 41
1
 50
90
  1
14
  0
TEXT
  8
_0-9__1-9_
 62
    7
 10
-578.25073709692015
 20
379.44859341849212
 40
16
 41
1
 50
90
  1
14
  0
TEXT
  8
_0-9__1-9_
 62
    7
 10
-773.27407196713784
 20
356.56204362720905
 40
16
 41
1
 50
89.999892999999645
  1
60
  0
TEXT
  8
_0-9__1-9_
 62
    7
 10
2350.2947627262747
 20
2020.0500343145454
 40
16
 41
1
 50
90
  1
26
  0
TEXT
  8
_0-9__1-9_
 62
    7
 10
2350.2947627262747
 20
2041.6139714789319
 40
16
 41
1
 50
90
  1
17
  0
TEXT
  8
_0-9__1-9_
 62
    7
 10
2351.410912982923
 20
1998.9446041556178
 40
16
 41
1
 50
90
  1
17
  0
TEXT
  8
_0-9__1-9_
 62
    7
 10
1361.6504595149167
 20
2019.7493595282742
 40
16
 41
1
 50
90
  1
32
  0
TEXT
  8
_0-9__1-9_
 62
    7
 10
1360.8366261496681
 20
2044.6357089937483
 40
16
 41
1
 50
90
  1
14
  0
TEXT
  8
_0-9__1-9_
 62
    7
 10
1360.9645084511849
 20
1998.1642605020977
 40
16
 41
1
 50
90
  1
14
  0
TEXT
  8
_0-9__1-9_
 62
    7
 10
1744.5183336513169
 20
1604.5655347484894
 40
16
 41
1
 50
90
  1
39
  0
TEXT
  8
_0-9__1-9_
 62
    7
 10
1210.8667350049468
 20
1604.2163640289482
 40
16
 41
1
 50
90
  1
45
  0
TEXT
  8
_0-9__1-9_
 62
    7
 10
1211.4163655794609
 20
1634.6047975599186
 40
16
 41
1
 50
90
  1
15
  0
TEXT
  8
_0-9__1-9_
 62
    7
 10
1011.1705923495579
 20
1605.8775701794923
 40
16
 41
1
 50
90
  1
75
  0
TEXT
  8
_0-9__1-9_
 62
    7
 10
1010.6374188370922
 20
1219.8099261851437
 40
16
 41
1
 50
89.999938000000398
  1
4.8
  0
TEXT
  8
_0-9__1-9_
 62
    7
 10
1700.7437797713019
 20
1188.2574860610916
 40
16
 41
1
 50
90
  1
26
  0
TEXT
  8
_0-9__1-9_
 62
    7
 10
2861.8160427828047
 20
2005.8250585310211
 40
16
 41
1
 50
90
  1
85.5
  0
LINE
  8
_0-9__1-9_
  6
CONTINUOUS
 62
    7
 10
2836.666191766607
 20
2057.12483539094
 11
2836.666191766607
 21
1770.12483539094
  0
POINT
  8
_0-9__1-9_
 62
    7
 10
2836.666191766607
 20
2057.12483539094
  0
CIRCLE
  8
_0-9__1-9_
  6
CONTINUOUS
 62
    7
 10
2836.666191766607
 20
2057.12483539094
 40
0.4999999999999998
  0
CIRCLE
  8
_0-9__1-9_
  6
CONTINUOUS
 62
    7
 10
2836.666191766607
 20
2057.12483539094
 40
0.2499999999999998
  0
POINT
  8
_0-9__1-9_
 62
    7
 10
2836.666191766607
 20
1770.12483539094
  0
CIRCLE
  8
_0-9__1-9_
  6
CONTINUOUS
 62
    7
 10
2836.666191766607
 20
1770.12483539094
 40
0.4999999999999998
  0
CIRCLE
  8
_0-9__1-9_
  6
CONTINUOUS
 62
    7
 10
2836.666191766607
 20
1770.12483539094
 40
0.2499999999999998
  0
LINE
  8
_0-9__1-9_
  6
CONTINUOUS
 62
    7
 10
2836.666191766607
 20
1770.12483539094
 11
2895.7896644036068
 21
1770.12483539094
  0
LINE
  8
_0-9__1-9_
  6
CONTINUOUS
 62
    7
 10
2836.666191766607
 20
2057.12483539094
 11
2895.7896644036068
 21
2057.12483539094
  0
TEXT
  8
_0-9__1-9_
 62
    7
 10
2833.4825476119399
 20
1901.911661401371
 40
16
 41
1
 50
90
  1
287
  0
TEXT
  8
_0-9__1-9_
 62
    7
 10
2862.3307064723258
 20
1771.3154683639109
 40
16
 41
1
 50
90
  1
20
  0
TEXT
  8
_0-9__1-9_
 62
    7
 10
2861.8275000189369
 20
1789.8250434765537
 40
16
 41
1
 50
90
  1
12
  0
TEXT
  8
_0-9__1-9_
 62
    7
 10
2861.5193696699657
 20
1962.7599820882601
 40
16
 41
1
 50
90
  1
12.5
  0
TEXT
  8
_0-9__1-9_
 62
    7
 10
2862.0474993819857
 20
1936.3815173057549
 40
16
 41
1
 50
90
  1
45
  0
TEXT
  8
_0-9__1-9_
 62
    7
 10
2861.695403397111
 20
1895.4652615948862
 40
16
 41
1
 50
90
  1
12.5
  0
TEXT
  8
_0-9__1-9_
 62
    7
 10
2861.9376280881061
 20
1832.6780176628613
 40
16
 41
1
 50
90
  1
12.5
  0
TEXT
  8
_0-9__1-9_
 62
    7
 10
2862.3375983994247
 20
1873.8482157152141
 40
16
 41
1
 50
90
  1
42
  0
TEXT
  8
_0-9__1-9_
 62
    7
 10
3049.9778981516597
 20
2019.5714412364191
 40
16
 41
1
 50
90
  1
34
  0
TEXT
  8
_0-9__1-9_
 62
    7
 10
3050.1512364445939
 20
2044.7117330433778
 40
16
 41
1
 50
90
  1
13
  0
TEXT
  8
_0-9__1-9_
 62
    7
 10
3050.1512364445939
 20
1997.4784575272743
 40
16
 41
1
 50
90
  1
13
  0
TEXT
  8
_0-9__1-9_
 62
    7
 10
3090.7896644036073
 20
1327.9158278636341
 40
16
 41
1
 50
90
  1
13
  0
TEXT
  8
_0-9__1-9_
 62
    7
 10
3090.0836464762342
 20
1303.2834207396447
 40
16
 41
1
 50
90
  1
34
  0
TEXT
  8
_0-9__1-9_
 62
    7
 10
3090.7896644036073
 20
1279.8078620601952
 40
16
 41
1
 50
90
  1
13
  0
POINT
  8
_0-9__1-9_
 62
    7
 10
2836.666191766607
 20
1339.5
  0
POINT
  8
_0-9__1-9_
 62
    7
 10
2836.666191766607
 20
1052.4999999999991
  0
TEXT
  8
_0-9__1-9_
 62
    7
 10
2832.8818384400047
 20
1184.9999999999991
 40
16
 41
1
 50
90
  1
287
  0
LINE
  8
_0-9__1-9_
  6
CONTINUOUS
 62
    7
 10
2836.666191766607
 20
1052.4999999999991
 11
2836.666191766607
 21
1339.5
  0
TEXT
  8
_0-9__1-9_
 62
    7
 10
2947.5061531649135
 20
995.52072323399807
 40
16
 41
1
 50
0
  1
60
  0
TEXT
  8
_0-9__1-9_
 62
    7
 10
2949.1190838182488
 20
1712.6455586249381
 40
16
 41
1
 50
0
  1
60
  0
TEXT
  8
_0-9__1-9_
 62
    7
 10
2274.4657037776633
 20
1943.0102994750591
 40
16
 41
1
 50
0
  1
25
  0
TEXT
  8
_0-9__1-9_
 62
    7
 10
1671.7395080379995
 20
1519.6701066353251
 40
16
 41
1
 50
0
  1
20
  0
TEXT
  8
_0-9__1-9_
 62
    7
 10
1625.8920038150745
 20
1080.4302325179019
 40
16
 41
1
 50
0
  1
20
  0
TEXT
  8
_0-9__1-9_
 62
    7
 10
-312.99034284645313
 20
1943.1701116353252
 40
16
 41
1
 50
0
  1
20
  0
TEXT
  8
_0-9__1-9_
 62
    7
 10
-213.36162015375703
 20
1527.1701116353249
 40
16
 41
1
 50
0
  1
20
  0
TEXT
  8
_0-9__1-9_
 62
    7
 10
-127.99599230777085
 20
1110.7700966353279
 40
16
 41
1
 50
0
  1
20
  0
TEXT
  8
_0-9__1-9_
 62
    7
 10
-113.23592436307899
 20
694.77017663532524
 40
16
 41
1
 50
0
  1
20
  0
TEXT
  8
_0-9__1-9_
 62
    7
 10
186.86440553523062
 20
279.17010663532528
 40
16
 41
1
 50
0
  1
20
  0
TEXT
  8
_0-9__1-9_
 62
    7
 10
-702.05840241421583
 20
897.76701226658724
 40
16
 41
1
 50
0
  1
15.5
  0
TEXT
  8
_0-9__1-9_
 62
    7
 10
-588.20333131701727
 20
1290.8198094569091
 40
16
 41
1
 50
0
  1
55
  0
TEXT
  8
_0-9__1-9_
 62
    7
 10
-666.35388284804003
 20
1290.5255894319459
 40
16
 41
1
 50
0
  1
56.5
  0
TEXT
  8
_0-9__1-9_
 62
    7
 10
-691.58960709386611
 20
1290.5255894319459
 40
16
 41
1
 50
0
  1
13
  0
TEXT
  8
_0-9__1-9_
 62
    7
 10
-520.55944010410303
 20
1290.8198094569091
 40
16
 41
1
 50
0
  1
55
  0
TEXT
  8
_0-9__1-9_
 62
    7
 10
-452.20662652121109
 20
1290.8198094569091
 40
16
 41
1
 50
0
  1
55
  0
TEXT
  8
_0-9__1-9_
 62
    7
 10
-383.462318495197
 20
1290.8198094569091
 40
16
 41
1
 50
0
  1
55
  0
TEXT
  8
_0-9__1-9_
 62
    7
 10
-316.00888403839554
 20
1290.8198094569091
 40
16
 41
1
 50
0
  1
55
  0
TEXT
  8
_0-9__1-9_
 62
    7
 10
-247.00005274000159
 20
1291.1238915068159
 40
16
 41
1
 50
0
  1
55
  0
TEXT
  8
_0-9__1-9_
 62
    7
 10
-187.8630259060053
 20
1290.8799465630541
 40
16
 41
1
 50
0
  1
56.5
  0
TEXT
  8
_0-9__1-9_
 62
    7
 10
-585.62819726040152
 20
874.522344133459
 40
16
 41
1
 50
0
  1
57
  0
TEXT
  8
_0-9__1-9_
 62
    7
 10
-513.88948579105045
 20
874.522344133459
 40
16
 41
1
 50
0
  1
57
  0
TEXT
  8
_0-9__1-9_
 62
    7
 10
-131.80128617423134
 20
874.43334965926806
 40
16
 41
1
 50
0
  1
15.5
  0
TEXT
  8
_0-9__1-9_
 62
    7
 10
-174.97148422658438
 20
874.70924703154196
 40
16
 41
1
 50
0
  1
55.5
  0
TEXT
  8
_0-9__1-9_
 62
    7
 10
137.29803475673953
 20
458.19919533734742
 40
16
 41
1
 50
0
  1
58
  0
TEXT
  8
_0-9__1-9_
 62
    7
 10
-9.54412420663175
 20
458.19919533734742
 40
16
 41
1
 50
0
  1
58
  0
TEXT
  8
_0-9__1-9_
 62
    7
 10
-87.726418530340197
 20
457.86844255339861
 40
16
 41
1
 50
0
  1
57.5
  0
TEXT
  8
_0-9__1-9_
 62
    7
 10
-152.124813251967
 20
458.19919533734742
 40
16
 41
1
 50
0
  1
58
  0
TEXT
  8
_0-9__1-9_
 62
    7
 10
-296.87194789809109
 20
458.19919533734742
 40
16
 41
1
 50
0
  1
58
  0
TEXT
  8
_0-9__1-9_
 62
    7
 10
-377.00642397196134
 20
458.19919533734742
 40
16
 41
1
 50
0
  1
57.5
  0
TEXT
  8
_0-9__1-9_
 62
    7
 10
-439.28598728182806
 20
458.19919533734742
 40
16
 41
1
 50
0
  1
58
  0
TEXT
  8
_0-9__1-9_
 62
    7
 10
-519.80137686792432
 20
458.19919533734742
 40
16
 41
1
 50
0
  1
57.5
  0
TEXT
  8
_0-9__1-9_
 62
    7
 10
-584.08073611698092
 20
458.19919533734742
 40
16
 41
1
 50
0
  1
58
  0
TEXT
  8
_0-9__1-9_
 62
    7
 10
-662.07257368457613
 20
458.19919533734742
 40
16
 41
1
 50
0
  1
57.5
  0
TEXT
  8
_0-9__1-9_
 62
    7
 10
1340.1997993159118
 20
2122.7314994525482
 40
16
 41
1
 50
0
  1
58.5
  0
TEXT
  8
_0-9__1-9_
 62
    7
 10
1267.8262319928494
 20
2122.7314994525482
 40
16
 41
1
 50
0
  1
58.5
  0
TEXT
  8
_0-9__1-9_
 62
    7
 10
1413.1447369073139
 20
2122.7314994525482
 40
16
 41
1
 50
0
  1
58.5
  0
TEXT
  8
_0-9__1-9_
 62
    7
 10
1485.7087609864896
 20
2122.7314994525482
 40
16
 41
1
 50
0
  1
58.5
  0
TEXT
  8
_0-9__1-9_
 62
    7
 10
1559.7964391145717
 20
2122.7314994525482
 40
16
 41
1
 50
0
  1
58.5
  0
TEXT
  8
_0-9__1-9_
 62
    7
 10
1629.122698339821
 20
2122.7314994525482
 40
16
 41
1
 50
0
  1
58.5
  0
TEXT
  8
_0-9__1-9_
 62
    7
 10
1703.5595471874442
 20
2122.7314994525482
 40
16
 41
1
 50
0
  1
58.5
  0
TEXT
  8
_0-9__1-9_
 62
    7
 10
1775.6474293763365
 20
2122.7314994525482
 40
16
 41
1
 50
0
  1
58.5
  0
TEXT
  8
_0-9__1-9_
 62
    7
 10
1848.7828237238521
 20
2122.7314994525482
 40
16
 41
1
 50
0
  1
58.5
  0
TEXT
  8
_0-9__1-9_
 62
    7
 10
1920.3945640224611
 20
2122.7314994525482
 40
16
 41
1
 50
0
  1
58.5
  0
TEXT
  8
_0-9__1-9_
 62
    7
 10
1992.2443752662118
 20
2122.7314994525482
 40
16
 41
1
 50
0
  1
58.5
  0
TEXT
  8
_0-9__1-9_
 62
    7
 10
2067.8080932541725
 20
2122.7314994525482
 40
16
 41
1
 50
0
  1
58.5
  0
POINT
  8
_0-9__1-9_
 62
    7
 10
-709.99614636463366
 20
2118.0000100000002
  0
POINT
  8
_0-9__1-9_
 62
    7
 10
-689.99618636463401
 20
2118.0000100000002
  0
POINT
  8
_0-9__1-9_
 62
    7
 10
-676.99618636463401
 20
2118.0000100000002
  0
POINT
  8
_0-9__1-9_
 62
    7
 10
-616.99618636463401
 20
2118.0000100000002
  0
POINT
  8
_0-9__1-9_
 62
    7
 10
-603.99619636463422
 20
2118.0000100000002
  0
POINT
  8
_0-9__1-9_
 62
    7
 10
-314.99618636463401
 20
2118.0000100000002
  0
POINT
  8
_0-9__1-9_
 62
    7
 10
-294.99618636463401
 20
1938.0000049999999
  0
POINT
  8
_0-9__1-9_
 62
    7
 10
-314.99618636463401
 20
1938.0000049999999
  0
POINT
  8
_0-9__1-9_
 62
    7
 10
-327.99617636463381
 20
2118.0000100000002
  0
POINT
  8
_0-9__1-9_
 62
    7
 10
-387.99617636463381
 20
2118.0000100000002
  0
POINT
  8
_0-9__1-9_
 62
    7
 10
-400.99616636463406
 20
2118.0000100000002
  0
POINT
  8
_0-9__1-9_
 62
    7
 10
-709.99614636463366
 20
1938.0000049999999
  0
POINT
  8
_0-9__1-9_
 62
    7
 10
-459.99616636463406
 20
2118.0000100000002
  0
POINT
  8
_0-9__1-9_
 62
    7
 10
-472.99615636463386
 20
2118.0000100000002
  0
POINT
  8
_0-9__1-9_
 62
    7
 10
-531.99620636463396
 20
2118.0000100000002
  0
POINT
  8
_0-9__1-9_
 62
    7
 10
-544.99614636463366
 20
2118.0000100000002
  0
POINT
  8
_0-9__1-9_
 62
    7
 10
-214.99619636463399
 20
1709.5000149999989
  0
POINT
  8
_0-9__1-9_
 62
    7
 10
-227.99619636463444
 20
1709.5000149999989
  0
POINT
  8
_0-9__1-9_
 62
    7
 10
-280.99611636463419
 20
1709.5000149999989
  0
POINT
  8
_0-9__1-9_
 62
    7
 10
-293.99611636463396
 20
1709.5000149999989
  0
POINT
  8
_0-9__1-9_
 62
    7
 10
-346.99613636463391
 20
1709.5000149999989
  0
POINT
  8
_0-9__1-9_
 62
    7
 10
-359.99613636463414
 20
1709.5000149999989
  0
POINT
  8
_0-9__1-9_
 62
    7
 10
-412.99615636463386
 20
1709.5000149999989
  0
POINT
  8
_0-9__1-9_
 62
    7
 10
-425.99614636463366
 20
1709.5000149999989
  0
POINT
  8
_0-9__1-9_
 62
    7
 10
-478.99615636463386
 20
1709.5000149999989
  0
POINT
  8
_0-9__1-9_
 62
    7
 10
-491.99614636463366
 20
1709.5000149999989
  0
POINT
  8
_0-9__1-9_
 62
    7
 10
-544.99616636463406
 20
1709.5000149999989
  0
POINT
  8
_0-9__1-9_
 62
    7
 10
-557.99616636463406
 20
1709.5000149999989
  0
POINT
  8
_0-9__1-9_
 62
    7
 10
-610.99616636463406
 20
1709.5000149999989
  0
POINT
  8
_0-9__1-9_
 62
    7
 10
-623.99615636463386
 20
1709.5000149999989
  0
POINT
  8
_0-9__1-9_
 62
    7
 10
-676.99615636463386
 20
1709.5000149999989
  0
POINT
  8
_0-9__1-9_
 62
    7
 10
-689.99616636463361
 20
1709.5000149999989
  0
POINT
  8
_0-9__1-9_
 62
    7
 10
-709.99614636463366
 20
1709.5000149999989
  0
POINT
  8
_0-9__1-9_
 62
    7
 10
-194.99619636463422
 20
1522.0000049999999
  0
POINT
  8
_0-9__1-9_
 62
    7
 10
-134.99623636463389
 20
1594.999994999999
  0
POINT
  8
_0-9__1-9_
 62
    7
 10
-134.99623636463389
 20
1629.000004999999
  0
POINT
  8
_0-9__1-9_
 62
    7
 10
-49.996146364634114
 20
1226
  0
POINT
  8
_0-9__1-9_
 62
    7
 10
-49.996146364634114
 20
1208.99992
  0
POINT
  8
_0-9__1-9_
 62
    7
 10
-49.996146364634114
 20
1182.9999800000001
  0
POINT
  8
_0-9__1-9_
 62
    7
 10
-49.996146364634114
 20
1166
  0
POINT
  8
_0-9__1-9_
 62
    7
 10
-109.99614636463298
 20
1105.5999900000029
  0
POINT
  8
_0-9__1-9_
 62
    7
 10
-129.99614636463389
 20
1286.19795
  0
POINT
  8
_0-9__1-9_
 62
    7
 10
-142.99614636463366
 20
1286.19795
  0
POINT
  8
_0-9__1-9_
 62
    7
 10
-199.49614636463366
 20
1286.19795
  0
POINT
  8
_0-9__1-9_
 62
    7
 10
-212.49614636463389
 20
1286.19795
  0
POINT
  8
_0-9__1-9_
 62
    7
 10
-267.49614636463389
 20
1286.19795
  0
POINT
  8
_0-9__1-9_
 62
    7
 10
-280.49614636463366
 20
1286.19795
  0
POINT
  8
_0-9__1-9_
 62
    7
 10
-335.49614636463366
 20
1286.19795
  0
POINT
  8
_0-9__1-9_
 62
    7
 10
-348.49614636463366
 20
1286.19795
  0
POINT
  8
_0-9__1-9_
 62
    7
 10
-403.49614636463366
 20
1286.19795
  0
POINT
  8
_0-9__1-9_
 62
    7
 10
-416.49614636463366
 20
1286.19795
  0
POINT
  8
_0-9__1-9_
 62
    7
 10
-471.49614636463366
 20
1286.19795
  0
POINT
  8
_0-9__1-9_
 62
    7
 10
-484.49614636463366
 20
1286.19795
  0
POINT
  8
_0-9__1-9_
 62
    7
 10
-539.49614636463366
 20
1286.19795
  0
POINT
  8
_0-9__1-9_
 62
    7
 10
-552.49614636463366
 20
1286.19795
  0
POINT
  8
_0-9__1-9_
 62
    7
 10
-607.49614636463366
 20
1286.19795
  0
POINT
  8
_0-9__1-9_
 62
    7
 10
-620.49614636463366
 20
1286.19795
  0
POINT
  8
_0-9__1-9_
 62
    7
 10
-676.99614636463366
 20
1286.19795
  0
POINT
  8
_0-9__1-9_
 62
    7
 10
-689.99614636463366
 20
1286.19795
  0
POINT
  8
_0-9__1-9_
 62
    7
 10
-709.9961463646332
 20
1286.19795
  0
POINT
  8
_0-9__1-9_
 62
    7
 10
-709.9961463646332
 20
869.99995999999987
  0
POINT
  8
_0-9__1-9_
 62
    7
 10
-689.99601636463331
 20
869.99995999999987
  0
POINT
  8
_0-9__1-9_
 62
    7
 10
-674.49588636463295
 20
869.99995999999987
  0
POINT
  8
_0-9__1-9_
 62
    7
 10
-618.99606636463386
 20
869.99995999999987
  0
POINT
  8
_0-9__1-9_
 62
    7
 10
-605.99686636463366
 20
869.99995999999987
  0
POINT
  8
_0-9__1-9_
 62
    7
 10
-94.996086364634039
 20
689.60006999999973
  0
POINT
  8
_0-9__1-9_
 62
    7
 10
-34.996266364634266
 20
810.00004999999987
  0
POINT
  8
_0-9__1-9_
 62
    7
 10
-34.996266364634266
 20
767.00002999999992
  0
POINT
  8
_0-9__1-9_
 62
    7
 10
-114.99608636463404
 20
869.99995999999987
  0
POINT
  8
_0-9__1-9_
 62
    7
 10
-130.49710636463351
 20
869.99995999999987
  0
POINT
  8
_0-9__1-9_
 62
    7
 10
-185.99686636463366
 20
869.99995999999987
  0
POINT
  8
_0-9__1-9_
 62
    7
 10
-198.99685636463346
 20
869.99995999999987
  0
POINT
  8
_0-9__1-9_
 62
    7
 10
-255.99684636463371
 20
869.99995999999987
  0
POINT
  8
_0-9__1-9_
 62
    7
 10
-268.99699636463379
 20
869.99995999999987
  0
POINT
  8
_0-9__1-9_
 62
    7
 10
-325.99693636463348
 20
869.99995999999987
  0
POINT
  8
_0-9__1-9_
 62
    7
 10
-338.99687636463409
 20
869.99995999999987
  0
POINT
  8
_0-9__1-9_
 62
    7
 10
-395.99691636463376
 20
869.99995999999987
  0
POINT
  8
_0-9__1-9_
 62
    7
 10
-408.99690636463356
 20
869.99995999999987
  0
POINT
  8
_0-9__1-9_
 62
    7
 10
-465.99689636463381
 20
869.99995999999987
  0
POINT
  8
_0-9__1-9_
 62
    7
 10
-478.99688636463316
 20
869.99995999999987
  0
POINT
  8
_0-9__1-9_
 62
    7
 10
-535.99687636463386
 20
869.99995999999987
  0
POINT
  8
_0-9__1-9_
 62
    7
 10
-548.99687636463386
 20
869.99995999999987
  0
POINT
  8
_0-9__1-9_
 62
    7
 10
205.00387363536697
 20
274
  0
POINT
  8
_0-9__1-9_
 62
    7
 10
-709.99615636463341
 20
454.00004999999987
  0
POINT
  8
_0-9__1-9_
 62
    7
 10
-689.99615636463341
 20
454.00004999999987
  0
POINT
  8
_0-9__1-9_
 62
    7
 10
-675.99615636463341
 20
454.00004999999987
  0
POINT
  8
_0-9__1-9_
 62
    7
 10
-618.24617636463381
 20
454.00004999999987
  0
POINT
  8
_0-9__1-9_
 62
    7
 10
-604.24617636463381
 20
454.00004999999987
  0
POINT
  8
_0-9__1-9_
 62
    7
 10
-546.4960963646331
 20
454.00004999999987
  0
POINT
  8
_0-9__1-9_
 62
    7
 10
-532.49610636463376
 20
454.00004999999987
  0
POINT
  8
_0-9__1-9_
 62
    7
 10
-474.74617636463336
 20
454.00004999999987
  0
POINT
  8
_0-9__1-9_
 62
    7
 10
-460.74617636463381
 20
454.00004999999987
  0
POINT
  8
_0-9__1-9_
 62
    7
 10
-402.99617636463381
 20
454.00004999999987
  0
POINT
  8
_0-9__1-9_
 62
    7
 10
-388.99617636463336
 20
454.00004999999987
  0
POINT
  8
_0-9__1-9_
 62
    7
 10
-331.24609636463356
 20
454.00004999999987
  0
POINT
  8
_0-9__1-9_
 62
    7
 10
-317.24609636463356
 20
454.00004999999987
  0
POINT
  8
_0-9__1-9_
 62
    7
 10
-259.49613636463346
 20
454.00004999999987
  0
POINT
  8
_0-9__1-9_
 62
    7
 10
-245.49613636463368
 20
454.00004999999987
  0
POINT
  8
_0-9__1-9_
 62
    7
 10
-187.74605636463389
 20
454.00004999999987
  0
POINT
  8
_0-9__1-9_
 62
    7
 10
-173.74605636463366
 20
454.00004999999987
  0
POINT
  8
_0-9__1-9_
 62
    7
 10
-115.99612636463348
 20
454.00004999999987
  0
POINT
  8
_0-9__1-9_
 62
    7
 10
-101.99613636463346
 20
454.00004999999987
  0
POINT
  8
_0-9__1-9_
 62
    7
 10
-44.246056364634114
 20
454.00004999999987
  0
POINT
  8
_0-9__1-9_
 62
    7
 10
-30.246056364633205
 20
454.00004999999987
  0
POINT
  8
_0-9__1-9_
 62
    7
 10
27.503873635366972
 20
454.00004999999987
  0
POINT
  8
_0-9__1-9_
 62
    7
 10
41.503873635365608
 20
454.00004999999987
  0
POINT
  8
_0-9__1-9_
 62
    7
 10
99.253873635365608
 20
454.00004999999987
  0
POINT
  8
_0-9__1-9_
 62
    7
 10
113.25387363536652
 20
454.00004999999987
  0
POINT
  8
_0-9__1-9_
 62
    7
 10
171.00387363536584
 20
454.00004999999987
  0
POINT
  8
_0-9__1-9_
 62
    7
 10
185.00387363536697
 20
454.00004999999987
  0
POINT
  8
_0-9__1-9_
 62
    7
 10
1074.2947627262747
 20
2118
  0
POINT
  8
_0-9__1-9_
 62
    7
 10
1094.2947627262738
 20
2118
  0
POINT
  8
_0-9__1-9_
 62
    7
 10
1108.7947627262738
 20
2118
  0
POINT
  8
_0-9__1-9_
 62
    7
 10
1167.2947627262747
 20
2118
  0
POINT
  8
_0-9__1-9_
 62
    7
 10
1181.2947627262738
 20
2118
  0
POINT
  8
_0-9__1-9_
 62
    7
 10
2294.2947627262738
 20
1938
  0
POINT
  8
_0-9__1-9_
 62
    7
 10
2269.2947627262747
 20
2118
  0
POINT
  8
_0-9__1-9_
 62
    7
 10
2254.7947627262738
 20
2118
  0
POINT
  8
_0-9__1-9_
 62
    7
 10
2196.2947627262747
 20
2118
  0
POINT
  8
_0-9__1-9_
 62
    7
 10
2182.2947627262747
 20
2118
  0
POINT
  8
_0-9__1-9_
 62
    7
 10
2123.7947627262747
 20
2118
  0
POINT
  8
_0-9__1-9_
 62
    7
 10
2109.7947627262747
 20
2118
  0
POINT
  8
_0-9__1-9_
 62
    7
 10
2051.2947627262747
 20
2118
  0
POINT
  8
_0-9__1-9_
 62
    7
 10
2037.294762726274
 20
2118
  0
POINT
  8
_0-9__1-9_
 62
    7
 10
1978.7947627262738
 20
2118
  0
POINT
  8
_0-9__1-9_
 62
    7
 10
1964.7947627262747
 20
2118
  0
POINT
  8
_0-9__1-9_
 62
    7
 10
1906.2947627262747
 20
2118
  0
POINT
  8
_0-9__1-9_
 62
    7
 10
1892.2947627262747
 20
2118
  0
POINT
  8
_0-9__1-9_
 62
    7
 10
1833.7947627262738
 20
2118
  0
POINT
  8
_0-9__1-9_
 62
    7
 10
1819.7947627262738
 20
2118
  0
POINT
  8
_0-9__1-9_
 62
    7
 10
1761.2947627262738
 20
2118
  0
POINT
  8
_0-9__1-9_
 62
    7
 10
1747.2947627262747
 20
2118
  0
POINT
  8
_0-9__1-9_
 62
    7
 10
1688.7947627262747
 20
2118
  0
POINT
  8
_0-9__1-9_
 62
    7
 10
1674.7947627262738
 20
2118
  0
POINT
  8
_0-9__1-9_
 62
    7
 10
1616.2947627262738
 20
2118
  0
POINT
  8
_0-9__1-9_
 62
    7
 10
1602.2947627262747
 20
2118
  0
POINT
  8
_0-9__1-9_
 62
    7
 10
1543.7947627262747
 20
2118
  0
POINT
  8
_0-9__1-9_
 62
    7
 10
1529.7947627262738
 20
2118
  0
POINT
  8
_0-9__1-9_
 62
    7
 10
1471.2947627262738
 20
2118
  0
POINT
  8
_0-9__1-9_
 62
    7
 10
1457.2947627262738
 20
2118
  0
POINT
  8
_0-9__1-9_
 62
    7
 10
1398.7947627262747
 20
2118
  0
POINT
  8
_0-9__1-9_
 62
    7
 10
1384.7947627262738
 20
2118
  0
POINT
  8
_0-9__1-9_
 62
    7
 10
1326.2947627262738
 20
2118
  0
POINT
  8
_0-9__1-9_
 62
    7
 10
1312.2947627262738
 20
2118
  0
POINT
  8
_0-9__1-9_
 62
    7
 10
1253.7947627262738
 20
2118
  0
POINT
  8
_0-9__1-9_
 62
    7
 10
1239.7947627262738
 20
2118
  0
POINT
  8
_0-9__1-9_
 62
    7
 10
1654.2947627262747
 20
1709.5000049999999
  0
POINT
  8
_0-9__1-9_
 62
    7
 10
1599.2947627262747
 20
1709.5000049999999
  0
POINT
  8
_0-9__1-9_
 62
    7
 10
1584.2947627262738
 20
1709.5000049999999
  0
POINT
  8
_0-9__1-9_
 62
    7
 10
1689.2947627262738
 20
1514.5
  0
POINT
  8
_0-9__1-9_
 62
    7
 10
1529.2947627262747
 20
1709.5000049999999
  0
POINT
  8
_0-9__1-9_
 62
    7
 10
1514.2947627262747
 20
1709.5000049999999
  0
POINT
  8
_0-9__1-9_
 62
    7
 10
1459.2947627262738
 20
1709.5000049999999
  0
POINT
  8
_0-9__1-9_
 62
    7
 10
1444.2947627262738
 20
1709.5000049999999
  0
POINT
  8
_0-9__1-9_
 62
    7
 10
1389.2947627262747
 20
1709.5000049999999
  0
POINT
  8
_0-9__1-9_
 62
    7
 10
1374.2947627262738
 20
1709.5000049999999
  0
POINT
  8
_0-9__1-9_
 62
    7
 10
1319.2947627262738
 20
1709.5000049999999
  0
POINT
  8
_0-9__1-9_
 62
    7
 10
1304.2947627262747
 20
1709.5000049999999
  0
POINT
  8
_0-9__1-9_
 62
    7
 10
1249.2947627262738
 20
1709.5000049999999
  0
POINT
  8
_0-9__1-9_
 62
    7
 10
1234.2947627262738
 20
1709.5000049999999
  0
POINT
  8
_0-9__1-9_
 62
    7
 10
1179.2947627262747
 20
1709.5000049999999
  0
POINT
  8
_0-9__1-9_
 62
    7
 10
1164.2947627262747
 20
1709.5000049999999
  0
POINT
  8
_0-9__1-9_
 62
    7
 10
1109.2947627262738
 20
1709.5000049999999
  0
POINT
  8
_0-9__1-9_
 62
    7
 10
1094.2947627262738
 20
1709.5000049999999
  0
POINT
  8
_0-9__1-9_
 62
    7
 10
1074.2947627262747
 20
1709.5000049999999
  0
POINT
  8
_0-9__1-9_
 62
    7
 10
1704.2947927262749
 20
1165.9999149999999
  0
POINT
  8
_0-9__1-9_
 62
    7
 10
1214.2947627262738
 20
1165.9999949999999
  0
POINT
  8
_0-9__1-9_
 62
    7
 10
1214.2947627262738
 20
1177.9999849999999
  0
POINT
  8
_0-9__1-9_
 62
    7
 10
1214.2947627262738
 20
1214.0000049999999
  0
LINE
  8
_0-9__1-9_
  6
CONTINUOUS
 62
    7
 10
1214.2947627262738
 20
1226.0000049999999
 11
1214.2947627262738
 21
1165.9999949999999
  0
POINT
  8
_0-9__1-9_
 62
    7
 10
1214.2947627262738
 20
1226.0000049999999
  0
TEXT
  8
_0-9__1-9_
 62
    7
 10
1210.8667350049468
 20
1187.9999949999999
 40
16
 41
1
 50
90
  1
36
  0
TEXT
  8
_0-9__1-9_
 62
    7
 10
1211.4163655794609
 20
1163.9999899999998
 40
16
 41
1
 50
90
  1
12
  0
TEXT
  8
_0-9__1-9_
 62
    7
 10
1211.4163655794609
 20
1212.0000049999999
 40
16
 41
1
 50
90
  1
12
  0
ENDSEC
  0
EOF
